» » »

Doobie Brothers - Busted Down Around Tabs

Artists:  A B C D E F G H I J K L M N O P Q R S T U V W X Y Z # 

Busted Down Around Tabs

(ver. 1) Click to play this song!
Doobie Brothers
 Rating:
4/5 (4 votes)


 Busted Down Around lessons Tabs too difficult? Try these video lessons and learn fast
 
                BUSTED DOWN TAB        
CAPO 2         
 ^  =HAMMER ON OR HAMMER OFF

INTRO
       Am                                         G
e|---------------------------------------|----------------------------------|
B|---------------------------------------|----------------------------------|
G|----2--------2---------2-----------0---|-------0-------0--------0------2--|
D|-------2----------------------2--------|-----------0----------------0-----|
A|-0---------------3---------------------|---2------------------------------|
E|---------------------------------------|--------------------3-------------|

VERSE
        Am                                      G
e|---------------------------------------|----------------------------------|
B|-------------1^0-----1^0------------0--|--------------------------0-------|
G|------2---------------------2----------|-------0--------0^2------------2--|
D|-------------2--------------2----------|------------0----------------0----|
A|-0-------------------3-----------------|----2-----------------------------|   
E|---------------------------------------|------------------3---------------|

       Am                                    G
e|---------------------------------------|---------------------3------------|
B|------1--------------1^0------------0--|---------------0------------------|
G|---------------2--------------2--------|----------0------------------0----|
D|----------2-------------------2--------|-----0-------------------0--------|
A|-0-------------------3-----------------|-2--------------------------------|
E|---------------------------------------|------------------3---------------|PLAY THESE TWICE 

MIDDLE THING
    D                                             C
e|------------2-----2^0------------0-----|-------------------------0--------|
B|-------3------------------3------------|-----------------1^3--------------|
G|------------2-------------2------------|-------0--------------------------|
D|-0----------------4--------------------|------------2---------------------|
A|---------------------------------------|--3-------------------------------|
E|---------------------------------------|----------------------------------|

      D                                             C
e|------------2-----2^0------------0-----|----------------------------------|
B|-------3------------------3------------|----------------1-----------------|
G|------------2-------------2------------|------0---------------0-------0---|
D|-0----------------4--------------------|------------2-------------2-------|
A|---------------------------------------|--3-------------------------------|
E|---------------------------------------|-------------------3--------------|

VERSE 
        Am                                      G
e|---------------------------------------|----------------------------------|
B|-------------1^0-----1^0------------0--|--------------------------0-------|
G|------2---------------------2----------|-------0--------0^2------------2--|
D|-------------2--------------2----------|------------0----------------0----|
A|-0-------------------3-----------------|----2-----------------------------|
E|---------------------------------------|------------------3---------------|

       Am                                    G
e|---------------------------------------|----------------------------------|
B|------1--------------1^0------------0--|---------------0-----0------------|
G|---------------2--------------2--------|----------0------------------0----|
D|----------2-------------------2--------|-----0-------------------0--------|
A|-0-------------------3-----------------|-2--------------------------------|
E|---------------------------------------|------------------3---------------|

LEAD ON

e|---3----------------------------------------------------|
B|--------0------------------------0-----------0----------|
G|--------------------0-----------------------------------|
D|-------------0-------------------------0----------------|
A|--------------------------------------------------------|
E|---3-----------------------3----------------------------|

BRIDGE
     Bm                                      A7           G
e|-----------------------2---------------|----------------------------------|
B|---------------2^3---------------------|--2----------0-----------------0--|
G|------4---------------------------4----|------0--------------2------------|
D|-----------4----------------4----------|----------0----------------0------|
A|-2---------------2---------------------|--0-------------------------------|
E|---------------------------------------|-----------------3----------------|

     Bm                                      G              D
e|-----------------------2---------------|--3----------2--------------------|
B|---------------2^3---------------------|------0--------------3------------|
G|------4---------------------------4----|-------------------------------0--|
D|-----------4----------------4----------|----------0----------------0------|
A|-2---------------2---------------------|----------------------------------|
E|---------------------------------------|--3--------------2----------------|

     Bm                                      A7           G
e|-----------------------2---------------|----------------------------------|
B|---------------2^3---------------------|--2----------0-----------------0--|
G|------4---------------------------4----|------0--------------2------------|
D|-----------4----------------4----------|----------0----------------0------|
A|-2---------------2---------------------|--0-------------------------------|
E|---------------------------------------|-----------------3----------------|


     Bm                                      G              D
e|-----------------------2---------------|--3----------2--------------------|
B|---------------2^3---------------------|------0--------------3------------|
G|------4---------------------------4----|-------------------------------0--|
D|-----------4----------------4----------|----------0----------------0------|
A|-2---------------2---------------------|----------------------------------|
E|---------------------------------------|--3--------------2----------------|


PLAY EVERYTHING ONCE MORE. THEN END WITH INTRO AND DAMPEN STRINGS TO FADE OUT.  
THANK YOU. THIS IS MY FIRST TAB.
            
Submit corrections



        Busted Down Around lessons Hard to play? Try these video lessons and learn fast Busted Down Around lessons
        
↑ Back to top | Tablatures and chords for acoustic guitar and electric guitar, ukulele, drums are parodies/interpretations of the original songs. You may use it for private study, scholarship, research or language learning purposes only