» » »

Dokken - Tooth And Nail Tabs

Artists:  A B C D E F G H I J K L M N O P Q R S T U V W X Y Z # 

Tooth And Nail Tabs

(ver. 3) Click to play this song!
Dokken
 Rating:
4/5 (4 votes)

 Tooth And Nail lessons Tabs too difficult? Try these video lessons and learn fast
 
                First tab, be easy on me!but don't worry this is 99% correct and it's not like you'll 
find another tooth and nail tab.

Intro
-------------------------------------------------------|
-------------------------------------------------------|pick in 8th notes while
-------------------------------------------------------|sliding finger down from
--------------------------------------14---------------|th fret. honestly lynch's
-------------------------------------------------------|picking is random.
-14-12-11-10-9-8-7-7-6-5-4-3-2-0-----------------------|
--------------------------------|-----------------3----|
--------------------------------|----3-------3----3----|
--------------------------------|-2--2--2----2----0----|
------------5--(5)------------0-|-2--0--2----0----0----|
-------7------------7----7----0-|-0-----0--------------|
-0--0-----0------------0--------|-----------------3----|

--------------------------------|------------ every once in      ------|
--------------------------------|------------a while, he         -8^---|
--------------------------------|------------throws in an 8 on   ------|
-------------5--(5)-----------0-|-7---7------the B string rather ------|
---------7-----------7-----7--0-|-5---4------than the 5 on the D ------|
-0--0-0-----0-----------0-------|------------                    ------|

--------------------------------------|
--------------------------------------|
--------------------------------------|
--------------------------------------|
--------------------------------------|
-14-12-11-10-9-8-7-7-6-5-4-3-2-0------|

Verse
----------------|------------------------------------|
----------------|------------------------------------|
----------------|------------------------------------|
----------------|---------------5-------------7---8--|
--------7-----7-|---------------------7--5h7--5---6--|
-0---0-----0----|-0-0-0-0-0-0------0-----------------|
pre-chorus                                         end filler
-------------------------------------------------|-------------|
-------------------------------------------------|-------------|
-7-4--------------------------------------------|--------------|
-7-4--------------------------4--2--------------|----4---7^----|
-5-2--2-2-2-2-2-2-5-2-2-------------5--2-2-2-2--|--------------|
-------------------------------------------------|-------------|

chorus
--------------------------------|-----------------3----|
--------------------------------|----3-------3----3----|
--------------------------------|-2--2--2----2----0----|
------------5--(5)------------0-|-2--0--2----0----0----|
-------7------------7----7----0-|-0-----0--------------|
-0--0-----0------------0--------|-----------------3----|
how  long   does  it   take
--------------------------------|------------|
--------------------------------|------------|
--------------------------------|------------|
-------------5--(5)-----------0-|-7---7------|
---------7-----------7-----7--0-|-5---4------|
-0--0-0-----0-----------0-------|------------|
to   break   the   spell
--------------------------------|-----------------3----|
--------------------------------|----3-------3----3----|
--------------------------------|-2--2--2----2----0----|
------------5--(5)------------0-|-2--0--2----0----0----|
-------7------------7----7----0-|-0-----0--------------|
-0--0-----0------------0--------|-----------------3----|
straight   to   the   top.....
            
Submit corrections


        Tooth And Nail lessons Hard to play? Try these video lessons and learn fast Tooth And Nail lessons
        
↑ Back to top | Tablatures and chords for acoustic guitar and electric guitar, ukulele, drums are parodies/interpretations of the original songs. You may use it for private study, scholarship, research or language learning purposes only