» » »

Dodie - Would You Be So Kind Bass

Artists:  A B C D E F G H I J K L M N O P Q R S T U V W X Y Z # 

Would You Be So Kind Bass

(ver. 1) Click to play this song!
Dodie
 Rating:
4.3/5 (16 votes)

 Would You Be So Kind lessons Tabs too difficult? Try these video lessons and learn fast
 
                [Chorus] (0:29)
G|-------------------------------------|--------------------------------------|
D|-------------------------------------|--------------------------------------| ( Hammer-ons played fast )
A|-----------------------------0~---2~-|------------------------------0~---2~-|  
E|-0~------4h5~------2~---4~-----------|--0~------4h5~------2~---4~-----------|

[Verse 2] (0:59)
G|---------------------|--------------------|---------------------|-------------------|
D|---------------------|--------------------|---------------------|---2---------------|
A|-0-2-0---------------|-------0--0---0--0--|-0--2~-4--4---4-4--4-|-4---4-2--2---2--2-|
E|-------0--0---0-0--0-|-0-2-4--------------|---------------------|-------------------|


G|---------------------|--------------------|---------------------|---------------------|
D|---------------------|--------------------|---------------------|---2-----------------|
A|-2-4-2---------------|-------0--0---0--0--|-0--2~-4--4---4-4--4-|-4---4-2--2---2-2--2-|
E|-------0--0---0-0--0-|-0-2-4--------------|---------------------|---------------------|

[Chorus]
G|---------------------|------------------|-------------------------|-----------------------|
D|---------------------|------------------|-------------------------|-----------------------|
A|-2-4-2---------------|-------0--0---0-0-|-0-0---------------------|---------------2--2--2-|
E|-------0--0---0-0--0-|-0-2-4------------|------4-2-2---2-2---4-4--|-4--4-5---5-5----------|


G|------------|------------------|-------------------------|------------------------|
D|------------|------------------|-------------------------|------------------------|
A|------------|-------0--0---0-0-|-0-0---------------------|---------------2--2--2--|
E|-0---0-0--0-|-0-2-4------------|------4-2-2---2-2---4-4--|-4--4-5---5-5-----------|

[Bridge]
G|------------------|------------------|---------------|
D|------------------|-------------2----|--------2------|
A|-0---0---0---0-2--|-2--2-0-2-4----4--|-2----4---4-2--|x5
E|-----------4------|------------------|---------------| 


G|------------------|----------------------|
D|------------------|----------------------|
A|-0---0---0---0-2--|-2--2-0-2-4~-------2~-|
E|-----------4------|----------------------|

[Chorus] (2:31)
G|--------|--------|------------|-----------------|
D|--------|--------|------------|-----------------|
A|--------|--------|-0--0--0--0-|-2-2-2-2-2-2-2-2-|
E|-2~-----|-4~-----|------------|-----------------|

G|------------|------------------------|------------------------|----------------------|
D|------------|------------------------|------------------------|----------------------| ( Pull-offs played
A|------------|---------0--0-0--0-0--0-|-0----------------------|-------------4p2---2--|   Fast )
E|-0---0-0--0-|-0-0-2-4----------------|---4-2-2---2-2---4--4-4-|-4-5---5-5-5----------|

[Outro]
G|------------------------|--------------------------------|
D|------------------------|-----------------------------2--|
A|-2-4-2------------------|-------------4p2---2---2-4-2----|
E|-------2---2-2---4--4-4-|-4-5---5-5-5--------------------|

            
Submit corrections


        Would You Be So Kind lessons Hard to play? Try these video lessons and learn fast Would You Be So Kind lessons
        
↑ Back to top | Tablatures and chords for acoustic guitar and electric guitar, ukulele, drums are parodies/interpretations of the original songs. You may use it for private study, scholarship, research or language learning purposes only