» » »

Dodie - I Have A Hole In My Tooth And My Dentists Are Shut Bass

Artists:  A B C D E F G H I J K L M N O P Q R S T U V W X Y Z # 

I Have A Hole In My Tooth And My Dentists Are Shut Bass

(ver. 1) Click to play this song!
Dodie
 Rating:
4.3/5 (23 votes)

 I Have A Hole In My Tooth And My Dentists Are Shut lessons Tabs too difficult? Try these video lessons and learn fast
 
                [Bridge] (0:14)
G|----------------------|--------------------|
D|-------0--0------0--0-|-------0---------0--|
A|-0-2-0-------0-2------|-0-2-0-----0-2-0----|
D|----------------------|--------------------|

[Verse 2]
G|----------------------------|-------------------------|-------------------------|--------------------|
D|-0--0---0--0-------2--0-----|-------------------------|-------------------------|-0--0--------0---0--|
A|---------------0-2------2-0-|-------------------------|-0--0---0---0--0---0-2-4-|-------0-2-0--------|
D|----------------------------|-5--5---5-5--5--5--3-4-5-|-------------------------|--------------------|
                                                             .
[Outro]
G|----------------------|-----------------|
D|-------0--0------0--0-|-------0---------|
A|-0-2-0-------0-2------|-0-2-0-----------|
D|----------------------|------------12\0-| 

            
Submit corrections


        I Have A Hole In My Tooth And My Dentists Are Shut lessons Hard to play? Try these video lessons and learn fast I Have A Hole In My Tooth And My Dentists Are Shut lessons
        
↑ Back to top | Tablatures and chords for acoustic guitar and electric guitar, ukulele, drums are parodies/interpretations of the original songs. You may use it for private study, scholarship, research or language learning purposes only