» » »

Doc Watson - Summertime Tabs

Artists:  A B C D E F G H I J K L M N O P Q R S T U V W X Y Z # 

Summertime Tabs

(ver. 3) Click to play this song!
Doc Watson
 Rating:
4.3/5 (15 votes)

 Summertime lessons Tabs too difficult? Try these video lessons and learn fast
 
                [Intro]
  Section #1                                           
e|--------------------------------|-------------------|
B|---11-10-8---10b(12)-8----------|---8-10-10b(12)-8--|
G|-----------9----------9-7---7-9-|-/9--------------9-|
D|--------------------------9-----|-------------------|
A|--------------------------------|-------------------|
E|-0------------------------------|-------------------|

  Section #2    Em
e|-7-7----------------------|------------------------------|
B|-----10-8--10/12-12-12~~~-|-8-10-8-10-10b(12)-8h10p8-----|
G|----------9---------------|--------------------------9---|
D|--------------------------|---------------------------9-9|
A|--------------------------|------------------------------|
E|--------------------------|------------------------------|

  Section #3 Am                       B7
e|-7-7--------------------|----------------|
B|-----10-8---10-10-10~~~-|------8---8-7~~-|
G|----------9-------------|-/9-9---9-------|
D|------------------------|----------------|
A|------------------------|----------------|
E|------------------------|----------------|

  Section #4
    Lick 1               Lick 2
e|-------------------|----------------------------7------|
B|-------------------|----8-10-10b(12)-10-8-8-9-10-10-8--|
G|----7--------7-7-9-|--/9-----------------9-----------9-|
D|-7/9-9-9--9-9-9----|-----------------------------------|
A|-------------------|-----------------------------------|
E|-------------------|-----------------------------------|
            
Submit corrections


        Summertime lessons Hard to play? Try these video lessons and learn fast Summertime lessons
        
↑ Back to top | Tablatures and chords for acoustic guitar and electric guitar, ukulele, drums are parodies/interpretations of the original songs. You may use it for private study, scholarship, research or language learning purposes only