Home » D » Dixie Chicks »

Dixie Chicks - Not Ready To Make Nice Tabs

Artists:  A B C D E F G H I J K L M N O P Q R S T U V W X Y Z # 

Not Ready To Make Nice Tabs

(ver. 2) Click to play this song!
Dixie Chicks
 Rating:
4/5 (4 votes)
                
This song has so much passion and feeling in it. I am not saying that I agree 
with what the Chicks said about our country, but I am so proud to know a group 
of amazing singers that stick to what they said and never back down. Their 
confidence is outstanding.   



Capo 1st fret

E----------0h1------1---------------------------
B---------3--------3-----1-----1-----1----------
G--------2--------2-----0-----0-----3-----------
D----0--0------0-0-----2-----2-----3------------
A---------------------3-----3-----1-------------
E--------------------0-----0-----0--------------

E----------0h1------1---------------------------
B---------3--------3-----1-----1-----1----------
G--------2--------2-----0-----0-----3-----------
D----0--0------0-0-----2-----2-----3------------
A---------------------3-----3-----1-------------
E--------------------0-----0-----0--------------

            
Submit corrections

↑ Back to top | Tablatures and chords for acoustic guitar and electric guitar, ukulele, drums are parodies/interpretations of the original songs. You may use it for private study, scholarship, research or language learning purposes only