» » »

Division Minuscula - Betty Boop Tabs

Artists:  A B C D E F G H I J K L M N O P Q R S T U V W X Y Z # 

Betty Boop Tabs

(ver. 1) Click to play this song!
Division Minuscula
 Rating:
4/5 (4 votes)

 Betty Boop lessons Tabs too difficult? Try these video lessons and learn fast
 
                Bueno ps... sta es una d las mejores knciones d division minuscula, y al kerer sakrla m 
cuenta q no hay tabs faciles d aprenderse y d entender asi q la sake a oido y sto es 
q lo disfruten... cualkier duda a mi msn. agreguenme porq no checo mails.jaja

intro
1------------------x2  1----------------|x2
2---5--5--4--------    2----------------|
3---4--4--4--------    3---2--2--1------|
4---2--2--2--------    4---2--2--2------|
5------------------    5----------------|
6------------------    6----------------|


1------------------x2  1------------------------------|
2------------------    2----------5--4-----------5--4-|
3------------------    3----------4--4-----------4--4-|
4---6--7--6--------    4---6--6-----------7--7--------|
5---4--4--4--------    5---6--6-----------7--7--------|
6------------------    6---4--4-----------5--5--------|

se repite el intro 2 veces mas pero mas rapido.

despues sigue esto...ay chekn el muñekeo y la rapidez

Post intro.
1--------------------- -----------------------|
2--------------------- -----------------------|
3---9--9-9-9-9--8----- -9--9-9-9-9-9-9--8-----|
4--------------------- -----------------------|
5---7--7-7-7-7--6----- -7--7-7-7-7-7-7--6-----|
6--------------------- -----------------------|

1--------------------------------|
2--------------------------------|
3---9--9-9-9-9--8----------------|
4--------------------9--9-9-9-9--|
5---7--7-7-7-7--6----------------|
6--------------------7--7-7-7-7--|

despues se repite otra vez los dos primeros y el tercero kmbia
1---------------------------------|
2---------------------------------|
3---9--9-9-9-9--8-----------------|
4--------------------11--11-11-11-|
5---7--7-7-7-7--6-----------------|
6---------------------9---9--9--9-|

1------------------------------|
2------------------------------|
3------------------------------|
4---7--7-7-7-7-7-7-7-7-7---9---|
5---7--7-7-7-7-7-7-7-7-7---9---|
6---5--5-5-5-5-5-5-5-5-5---7---|

verso.
tengo todo para comprobar...
1-----------------------------------------------------------------|
2-----------------------------------------------------------------|
3-----------------------------------------------------------------|
4---------------------------------6-6-6-6-6-6-6-------------------|
5---2-2-2-2-2-2---7-7-7-7-7-7-7---4-4-4-4-4-4-4---6-6-6-6-7-7-7-7-|
6---0-0-0-0-0-0---5-5-5-5-5-5-5-------------------4-4-4-4-5-5-5-5-|

Precoro.
Se Qe haz de pnsar en me, todo lo q hizo...
1-----------------------------------------|x3
2-----------------------------------------|
3-----------------------------------------|
4---4--4---2--2---------------9-9-9-9-9-9-|
5---2--2---0--0---6-6-6-6-6---7-7-7-7-7-7-|
6-----------------4-4-4-4-4---------------|

aki hay una variacion. las vces q se tok no stan bien  uds q la scuchen
pero para que sperar si ya no keda nada...
1------------------------------------------------------------|
2------------------------------------------------------------|
3------------------------------------------------------------|
4---4--4---2--2----------------------------------------------|
5---2--2---0--0---6-6-6-6-6---2222--4444--77777777--99999999-|
6-----------------4-4-4-4-4---0000--2222--55555555--77777777-|

Coro.
tengo al mejor recuerdo en me...
1----------------------------------------| x4
2----------------------------------------|
3----------------------------------------|
4---999999------------666666---444444----|
5---777777---777777---444444---222222----|
6------------555555----------------------|

1------------------------------|
2------------------------------|
3------------------------------|
4-----P.M----------P.M---------|
5---7-77777777---9-99999999----|
6---5-55555555---7-77777777----|

Se repite el post intro.

y despues va el segundo verso solo bajeo.

Despues se repite el precoro.

Se repite el coro.

Y luego va el puente en el q canta la chava.
 Mejor vamos a platicar a ver si el...

1----------------------------------------------------|
2----------------------------------------------------|
3----------------------------------------------------|
4---999999999---9999999999---666666666---------------|
5---777777777---6666666666---444444444----7777777777-|
6-----------------------------------------5555555555-|

El Prefinal es este es lo mismo d arriba pero cn otro ritmo como q dura mas
pero hay otra guitarra q ace otra cosa esa no la he sacado.

y al final se repite el intro una vez lento.

Spero qe les haya gustado el tab.
            
Submit corrections


        Betty Boop lessons Hard to play? Try these video lessons and learn fast Betty Boop lessons
        
↑ Back to top | Tablatures and chords for acoustic guitar and electric guitar, ukulele, drums are parodies/interpretations of the original songs. You may use it for private study, scholarship, research or language learning purposes only