Home » D » Divine Heresy »

Divine Heresy - Impossible Is Nothing Tabs

Artists:  A B C D E F G H I J K L M N O P Q R S T U V W X Y Z # 

Impossible Is Nothing Tabs

(ver. 1) Click to play this song!
Divine Heresy
 Rating:
4/5 (4 votes)
                
*&^-------------------------------------------------------------^&*
*&^-------------------------------------------------------------^&*

The tuning for this song (And all Divine Heresy’s and Dino Cazares material is in A 
[A D G C F A D] trust me!) BUT for all you six stringers out there, here it is in drop B 
that’s how I figured most of it out on :p bye!

Tuning: Drop B (B F# B E G# C#)

Track Length: 3:55

Intro Riff 1 (0:00~0:08) x2
C#|-----------------------------------------------------------|
G#|-----------------------------------------------------------|
E |-----------------------------------------------------------|
B |-----------------------------------------------------------|
F#|-----------------------------------------------------------|
B |--00000000-0000-0000--00000000-0000-0000-------------------|
     ........ .... ....  ........ .... ....

Intro Riff 2 (0:08~0:17) x4
C#|--------------------------------|
G#|--------------------------------|
E |----------------------7---6-----|
B |----------------------x---x-----|
F#|----------------------5-s-4-----|
B |--00000000-0000-0000------------|
     ........ .... ....

Riff 1 (0:17-0:35) x4
C#|----------------------------------------------------------|
G#|----------------------------------------------------------|
E |----------------------------------------------------------|
B |----------------------------------------------------------|
F#|-----------1-1----------1-1----------1-1------------------|
B |--11111111-1-1-11111111-1-1-11111111-1-1-222-222 222------|
     ........ . . ........ . . ........ . . ... ... ...

Riff 2 (0:35~0:40) x1
C#|----------------------------------------------------------|
G#|----------------------------------------------------------|
E |----------------------------------------------------------|
B |----------------------------------------------------------|
F#|-----------1-1----------------------1-1-------------------|
B |--11111111-1-1-222-222-222-11111111-1-1-222-222-222-------|
     ........ . . ... ... ... ........ . . ... ... ...

Chorus Riff 1 (0:40~0:44) x1
C#|------------------------------------------------------------|
G#|------------------------------------------------------------|
E |------------------------------------------------------------|
B |------------------------------------------------------------|
F#|--8-----6------------9--9-8-5--8-----6------------9--9-8-5--|
B |----0-0---0-0-666666-------------0-0---0-0-666666-----------|
       . .   . . ......             . . . . .....
Chorus Riff 2 (0:44~0:48) x1
C#|------------------------------------------------------------|
G#|------------------------------------------------------------|
E |------------------------------------------------------------|
B |--8888------9999999999999999-8888------6666666666666666-----|
F#|-------6666-----------------------8899----------------------|
B |------------------------------------------------------------|
The amount of notes are estimated lol, the tremolo picking here is VERY FAST!

Back to Chorus Riff 1 (0:48~0:53) x1
Back to Chorus Riff 2 (0:53~0:57) x1

Back to Intro Riffs (Slightly different, play first half of Intro Riff 1 then add chords 
Intro Riff 2 on end [x2])

Back to Riff 1 (1:06~1:20) x3
Back to Riff 2 (1:20~1:23) x1 (End is slightly different, look below)

Riff 2 (1:20~1:23) x1
C#|-------------------------------------------|
G#|-------------------------------------------|
E |-------------------------------------------|
B |-------------------------------------------|
F#|-----------1-1----------------------1-1----|
B |--11111111-1-1-222-222-222-11111111-1-1----|
     ........ . . ... ... ... ........ . .

Back to Chorus Riff 1 (1:24~1:28)
Back to Chorus Riff 2 (1:28~1:33)
Back to Chorus Riff 1 (1:33~1:38)
Back to Chorus Riff 2 (1:38~1:42)

Riff 3 (1:42~1:57) Don’t know it!

C#|-----------------------------------------------------------|
G#|-----------------------------------------------------------|
E |-----------------------------------------------------------|
B |-----------------------------------------------------------|
F#|-----------------------------------------------------------|
B |-----------------------------------------------------------|

Riff 4 (1:57~2:12) xxxxxxxxx

C#|-----------------------------------------------------------|
G#|-----------------------------------------------------------|
E |-----------------------------------------------------------|
B |-----------------------------------------------------------|
F#|-----------------------------------------------------------|
B |-----------------------------------------------------------|

I know some of the riffs after this (even the solo) but there isn’t a lot of point 
it until I can figure out the rest of the song!


© Luke Parnell 2007-12-28
            
Submit corrections

↑ Back to top | Tablatures and chords for acoustic guitar and electric guitar, ukulele, drums are parodies/interpretations of the original songs. You may use it for private study, scholarship, research or language learning purposes only