Home » D » Disturbed »

Disturbed - Fade To Black Tabs

Artists:  A B C D E F G H I J K L M N O P Q R S T U V W X Y Z # 

Fade To Black Tabs

(ver. 1) Click to play this song!
Disturbed
Band- Disturbed
Song- Fade To Black(Metallica Cover)
Tuning- Standard Tuning

Disturbed plays the whole song, but the solo. Here is what they play.

Intro/Clean
|-----------------------------------------------------------------|
|-----------------------------------------------------------------|
|-----0---------------0---------------0---------------2-----------|
|---4---4---4---4---4---4---4---4---4---4---4---4---2---2---2---2-|
|-2-------2---5---0-------0---5---2-------2---5---4-------4---0---|
|-----------------------------------------------------------------|

Fill
|-----------------------------0-3-|
|---------------------------------|
|---------------------1-----1-----|
|-----0-------2-----2-----2-------|
|---3-------2---2-2-----2---------|
|-1-----1-4-----------------------|

Verse
|---------0---------------0---------------3-------|
|-0h1-------------1---1-----------0---3-----------|
|-2---2-------0h2---0---------0h2-------------2-0-|
|-2-----2---2-------2---2---2-----------0---0-----|
|-0-----------------3-----------------------------|
|-----------------------------------3-------------|

|----------1/3-|
|----------2/4-|
|-------0------|
|---2----------|
|-----2--------|
|-0------------|

Bridge/Distortion
|----------------------------------------------------|
|----------------------------------------------------|
|-2--2-2---------5--5-5---------2--2-2--7-9--9-9-----|
|-2--2-2---------5--5-5---------2--2-2--7-9--9-9-5-4-|
|-0--0-0-------5-3--3-3-------5-0--0-0--5-7--7-7-3-2-|
|--------0-0-3----------0-0-3------------------------|
P.M.     .......        .......                  ...

|---------------------------------------------|
|---------------------------------------------|
|-2--2-2---------5--5-5---------2--2-2--------|
|-2--2-2---------5--5-5---------2--2-2--------|
|-0--0-0-------5-3--3-3-------5-0--0-0-5-4--2-|
|--------0-0-3----------0-0-3----------3-2--0-|
P.M.     .......        .......        ...

Bridge 2(faster)
|---------------------------------|
|---------------------------------|
|-7/9--9--9--7/9--9-12-11-7--7--7-|
|-7/9--9--9--7/9--9-12-11-7--7--7-|
|-5/7--7--7--5/7--7-10--9-5--5--5-|
|---------------------------------|

|---------------------------|
|---------------------------|
|-------------------------4-|
|-9-9-9-7-7-7-5-5-5-4-4-4---|
|---------------------------|
|---------------------------|
P.M........................

|---------------------------------|
|---------------------------------|
|-7/9--9--9--7/9--9-12-11-7--7--7-|
|-7/9--9--9--7/9--9-12-11-7--7--7-|
|-5/7--7--7--5/7--7-10--9-5--5--5-|
|---------------------------------|

|----------------------------|
|----------------------------|
|----------------------------|
|-9-9-9-7-7-7-5-5-5-4-4-4--5-|
|----------------------------|
|----------------------------|
P.M.........................

Bridge 3
|-------------------------------------------------------------|
|-------------------------------------------------------------|
|---------9---------12-11---------7---------------------------|
|---------9---------12-11---------7-------------------------4-|
|---------7---------10--9---------5-9-9-9-7-7-7-5-5-5-4-4-4---|
|-0-0-0-0---0-0-0-0-------0-0-0-0-----------------------------|
P.M......   .......       .......

|--------------------------------------------------------------|
|--------------------------------------------------------------|
|---------9---------12-11---------7----------------------------|
|---------9---------12-11---------7----------------------------|
|---------7---------10--9---------5-9-9-9-7-7-7-5-5-5-4-4-4--5-|
|-0-0-0-0---0-0-0-0-------0-0-0-0------------------------------|
P.M......   .......       .......

Outro
|--------------------------------|
|--------------------------------|
|-7/9--9--9-7/9--9-12-11-7--7--7-|
|-7/9--9--9-7/9--9-12-11-7--7--7-|
|-5/7--7--7-5/7--7-10--9-5--5--5-|
|--------------------------------|

This is the best cover for this song that I've heard. It would have been better if they
hade all the solo's too. ENJOY!!!!
            
Submit corrections

↑ Back to top | Tablatures and chords for acoustic guitar and electric guitar, ukulele, drums are parodies/interpretations of the original songs. You may use it for private study, scholarship, research or language learning purposes only