» » »

Disturbed - Droppin Plates Tabs

Artists:  A B C D E F G H I J K L M N O P Q R S T U V W X Y Z # 

Droppin Plates Tabs

(ver. 1) Click to play this song!
Disturbed
 Rating:
4.3/5 (26 votes)

 Droppin Plates lessons Tabs too difficult? Try these video lessons and learn fast
 
                [Intro]

eb|-----------------------------------------|
Bb|-3---------------------------------------|
Gb|-2--------------------------------------2|
Db|-0------------------1--0----------------0|
Ab|-0------------------1--0----------------0|
Db|-0----0--1-1-1-1-1--1--0--0--1-1-1-1-1--0|
         .  . . . . .        .  . . . . .  

eb|-----------------------------------------|
Bb|-3--------------------------------------3|
Gb|-2--------------------------------------X|
Db|-0------------------1--0----------------0|
Ab|-0------------------1--0-----------------|
Eb|-0----0--1-1-1-1-1--1--0--0--1-1-1-1-1---|
         .  . . . . .        .  . . . . .

eb|-----------------------------------------|
Bb|-3---------------------------------------|
Gb|-2--------------------------------------2|
Db|-0------------------1--0----------------0|
Ab|-0------------------1--0----------------0|
Db|-0----0--1-1-1-1-1--1--0--0--1-1-1-1-1--0|
         .  . . . . .        .  . . . . .

eb|-----------------------------------------|
Bb|-3---------------------------------------|
Gb|-2---------------------------------------|
Db|-0------------------1--0-----------------|
Ab|-0------------------1--0-----------------|
Eb|-0----0--1-1-1-1-1--1--0--0--1-1-1-1-1/13|
         .  . . . . .        .  . . . .

eb|-----------------------------------------|
Bb|-3---------------------------------------|
Gb|-2--------------------------------------2|
Db|-0------------------1--0----------------0|
Ab|-0------------------1--0----------------0|
Db|-0----0--1-1-1-1-1--1--0--0--1-1-1-1-1--0|
         .  . . . . .        .  . . . . .  

eb|-----------------------------------------|
Bb|-3--------------------------------------3|
Gb|-2--------------------------------------X|
Db|-0------------------1--0----------------0|
Ab|-0------------------1--0-----------------|
Eb|-0----0--1-1-1-1-1--1--0--0--1-1-1-1-1---|
         .  . . . . .        .  . . . . .

eb|-----------------------------------------|
Bb|-3---------------------------------------|
Gb|-2--------------------------------------2|
Db|-0------------------1--0----------------0|
Ab|-0------------------1--0----------------0|
Db|-0----0--1-1-1-1-1--1--0--0--1-1-1-1-1--0|
         .  . . . . .        .  . . . . .

eb|-----------------------------------------|
Bb|-3---------------------------------------|
Gb|-2---------------------------------------|
Db|-0------------------1--0----------------1|
Ab|-0------------------1--0----------------1|
Eb|-0----0--1-1-1-1-1--1--0--0--1-1-1-1-1--1|
         .  . . . . .        .  . . . . .


[Pre-Verse]
      
eb|---|
Bb|-14|
Gb|-18| x8
Db|---|
Ab|---|
Db|---|


[Verse 1]

eb|-----------------------------------------------|
Bb|-----------------------------------------------|
Gb|-8-------------5---8-------------8-------------|
Db|-8---0~--------5---8---0~--------8---0~--------|
Ab|-6---0~--------3---6---0~--------6---0~--------|
Db|-----0~----------------0~------------0~--------|

eb|-----------------------------------|
Bb|-----------------------------------|
Gb|---------------3----3--3--3--3/5--5| x2
Db|-5----3--5--5--3----3--3--3--3/5--5|
Ab|-5----3--5--5--1----1--1--1--1/3--3|
Db|-5----3--5--5----------------------|


[Chorus]

eb|---------------------------------------|
Bb|---------------------------------------|
Gb|---------8\7---------------------------| x3
Db|---------X\X---6-----------------------|
Ab|---------6\5---6----0--3--5--0--3--0--3|
Db|-1---0---------6----0--3--5--0--3--0--3|
                       .  .  .  .  .  .  .

eb|---------------------------------------|
Bb|---------------------------------------|
Gb|---------8\7---------------------------|
Db|---------X\X---6----------------3--3--3|
Ab|---------6\5---6----0--3--5--0--3--3--3|
Db|-1---0---------6----0--3--5--0--3--3--3|
                       .  .  .  .


[Verse 2]

eb|-----------------------------------------------|
Bb|-----------------------------------------------|
Gb|-8-------------5---8-------------8-------------|
Db|-8---0~--------5---8---0~--------8---0~--------|
Ab|-6---0~--------3---6---0~--------6---0~--------|
Db|-----0~----------------0~------------0~--------|

eb|-----------------------------------|
Bb|-----------------------------------|
Gb|---------------3----3--3--3--3/5--5| 
Db|-5----3--5--5--3----3--3--3--3/5--5|
Ab|-5----3--5--5--1----1--1--1--1/3--3|
Db|-5----3--5--5----------------------|

eb|----------------------------------------------------|
Bb|----------------------------------------------------|
Gb|----------------------------5---8-------------------|
Db|-1---0----------------------5---8---0---------------|
Ab|-1---0---0-0--0-0-0--0-0-0--3---6---0---0-0-0--0-0-0|
Db|-1---0---0-0--0-0-0--0-0-0----------0---0-0-0--0-0-0|
            . .  . . .  . . .              . . .  . . .

eb|-------------------------------------------------------------|
Bb|-------------------------------------------------------------|
Gb|-----------------------------------------3----3--3--3--3/5--5|
Db|-1---0---------------------5----3--5--5--3----3--3--3--3/5--5|
Ab|-1---0---0-0--0-0-0--0-0---5----3--5--5--1----1--1--1--1/3--3|
Db|-1---0---0-0--0-0-0--0-0---5----3--5--5----------------------|
            . .  . . .  . .


[Bridge]

eb|------------------|
Bb|------------------|
Gb|------------------|
Db|-0~---------------|
Ab|-0~---------------|
Db|-0~---------------|
                                        
eb|-------------------------------------|
Bb|-------------------------------------|
Gb|-------------------------------------| x4
Db|-------------------------------------|
Ab|-------------------------------------|
Db|-0--1--0--1--0--1--0--0-0-0--0--0-0-0|

eb|-------------------------------------|
Bb|-------------------------------------|
Gb|-------------------------------------| x7
Db|-0--1--0--1--0--1--------------------|
Ab|-0--1--0--1--0--1--------------------|
Db|-0--1--0--1--0--1--0--0-0-0--0--0-0-0|

eb|--------------------------------|
Bb|--------------------------------|
Gb|--------------------------------| x7
Db|-0--1--0--1--0--1---------------|
Ab|-0--1--0--1--0--1--0-0-0-0-0-0-0|
Db|-0--1--0--1--0--1--0-0-0-0-0-0-0|
                      . . . . . . .


[Break]

eb|----|
Bb|----|
Gb|----|
Db|-0~~|
Ab|-0~~|
Db|-0~~|            
Submit corrections


        Droppin Plates lessons Hard to play? Try these video lessons and learn fast Droppin Plates lessons
        
↑ Back to top | Tablatures and chords for acoustic guitar and electric guitar, ukulele, drums are parodies/interpretations of the original songs. You may use it for private study, scholarship, research or language learning purposes only