» » »

Disturbed - Divide Bass

Artists:  A B C D E F G H I J K L M N O P Q R S T U V W X Y Z # 

Divide Bass

(ver. 1) Click to play this song!
Disturbed
 Rating:
4/5 (4 votes)

 Divide lessons Tabs too difficult? Try these video lessons and learn fast
 
                -----------------------------------------------------------------------------
                             Divide - Disturbed
-----------------------------------------------------------------------------

Intro:

F#|-------------------------------------------------------------------|
C#|-------------------------------------------------------------------|
G#|-------------------------------------------------------------------|
C#|-522334444---------------------------------------------------------|(x4)

F#|-------------------------------------------------------------------|
C#|-------------------------------------------------------------------|
G#|-------------------------------------------------------------------|
C#|-2-xx-22-xx-22-xx-22-x-2-x-205-------------------------------------|(x2)

Verse:

F#|-------------------------------------------------------------------|
C#|-------------------------------------------------------------------|
G#|-------------------------------------------------------------------|
C#|-2-22-22-22-2-205--------------------------------------------------|(x4)

F#|-------------------------------------------------------------------|
C#|-------------------------------------------------------------------|
G#|-------------------------------------------------------------------|
C#|-2/(14)(14)-22-22-2-205--------------------------------------------|(x4)

Part before chorus:

F#|-------------------------------------------------------------------|
C#|-------------------------------------------------------------------|
G#|-------------------------------------------------------------------|
C#|-522334444---------------------------------------------------------|(x2)

Chorus:

F#|-------------------------------------------------------------------|
C#|-------------------------------------------------------------------|
G#|-------------------------------------------------------------------|
C#|-2-xx-22-xx-22-xx-22-x-2-------------------------------------------|

F#|-------------------------------------------------------------------|
C#|-------------------------------------------------------------------|
G#|-7----8----3----5----5-58------------------------------------------|
C#|---00---00---00---00-----------------------------------------------|

F#|-------------------------------------------------------------------|
C#|-------------------------------------------------------------------|
G#|-7----8----3----5--------------------------------------------------|
C#|---00---00---00---00-55--------------------------------------------|

Note: The las two parts are played twice.

The second verse is the same as the first one!
The second part before the chorus is the same as the first one!
The second chorus is the same as the first one!

Bridge:

F#|-------------------------------------------------------------------|
C#|-------------------------------------------------------------------|
G#|-------------------------------------------------------------------|
C#|-222-888-22-200-445-57---------------------------------------------|(x4)

Solo:

F#|-------------------------------------------------------------------|
C#|-------------------------------------------------------------------|
G#|-------------------------------------------------------------------|
C#|-2-22-22-22-2-205--------------------------------------------------|(x4)

F#|-------------------------------------------------------------------|
C#|-------------------------------------------------------------------|
G#|-7----8----3----5----5-58------------------------------------------|
C#|---00---00---00---00-----------------------------------------------|

F#|-------------------------------------------------------------------|
C#|-------------------------------------------------------------------|
G#|-------------------------------------------------------------------|
C#|-2-22-22-22-2-205--------------------------------------------------|

F#|-------------------------------------------------------------------|
C#|-------------------------------------------------------------------|
G#|-7----8----3----5----5-58------------------------------------------|
C#|---00---00---00---00-----------------------------------------------|

F#|-------------------------------------------------------------------|
C#|-------------------------------------------------------------------|
G#|-22222222-55555555-------------------------------------------------|
C#|-------------------------------------------------------------------|

Ending part:

F#|-------------------------------------------------------------------|
C#|-------------------------------------------------------------------|
G#|-------------------------------------------------------------------|
C#|-2-xx-22-xx-22-xx-22-x-2-x-222-------------------------------------|(x8)

Ok. The song is not 100% accurate, but I guess you could say it is 85%. Enjoy.
            
Submit corrections


        Divide lessons Hard to play? Try these video lessons and learn fast Divide lessons
        
↑ Back to top | Tablatures and chords for acoustic guitar and electric guitar, ukulele, drums are parodies/interpretations of the original songs. You may use it for private study, scholarship, research or language learning purposes only