» » »

Distillers - The Young Crazed Peeling Tabs

Artists:  A B C D E F G H I J K L M N O P Q R S T U V W X Y Z # 

The Young Crazed Peeling Tabs

(ver. 3) Click to play this song!
Distillers
 Rating:
4/5 (4 votes)

 The Young Crazed Peeling lessons Tabs too difficult? Try these video lessons and learn fast
 
                
Intro 2X Then pick-slide m=palm mute
e-------------------------------------------------
b--------------------------mm----mm----mm----mm---
g---mm----mm----mm----mm---55-5--55-5--55-5--55-5-
d---55-5--55-5--33-3--33-3-55-5--55-5--55-5--55-5-
a---55-5--55-5--33-3--33-3-33-3--33-3--33-3--33-3-
E---33-3--33-3--11-1--11-1------------------------


Then this 2x  *****=(Not played first time) 
e----------------------------------------------------
b--------------------------mm----mm------------------
g---mm----mm----mm----mm---55-5--55-5--55555-5-------
d---55-5--55-5--33-3--33-3-55-5--55-5--55555-5-------
a---55-5--55-5--33-3--33-3-33-3--33-3--33333-3-*****-   /=slide
E---33-3--33-3--11-1--11-1---------------------5/15v-   v=vibrato
 

Verse X???? 
e-------------------------------------------------
b--------------------------mm----mm----mm----mm---
g---mm----mm----mm----mm---55-5--55-5--55-5--55-5-
d---55-5--55-5--33-3--33-3-55-5--55-5--55-5--55-5-
a---55-5--55-5--33-3--33-3-33-3--33-3--33-3--33-3-
E---33-3--33-3--11-1--11-1------------------------



Chorus 4X  F# Not played last time                    
e--------------------------------
b--------------------------------
g---------5-55555----------------
d-3-33333-5-55555-5555555555-5-4-
a-3-33333-3-33333-5555555555-5-4-
E-1-11111---------3333333333-3-2-

Second slide part comes a little after fist
slide part
e-----------------------------------------
b-----------------------------------------
g---mm----mm----mm----mm---55555555-------
d---55-5--55-5--33-3--33-3-55555555-------then pick-slide
a---55-5--55-5--33-3--33-3-33333333-3/15--then to chorus
E---33-3--33-3--11-1--11-1----------------
 

LIttle picking part that you hear every once
in a while in the background.
e----------
b----^^^---
g-5b-555-3-  b=Full Bend ^=bend
d----------
a----------
E----------

SOLO X??????? m=palm mute  
e-mm----mm----mm----mm----mm----13-13b-13-
b-88-8--88-8--88-8--88-8--88-8--13-13b-13-
g-77-7--77-7--77-7--77-7--77-7------------
d-----------------------------------------
a-----------------------------------------
E-----------------------------------------

Thats It!!!!
            
Submit corrections


        The Young Crazed Peeling lessons Hard to play? Try these video lessons and learn fast The Young Crazed Peeling lessons
        
↑ Back to top | Tablatures and chords for acoustic guitar and electric guitar, ukulele, drums are parodies/interpretations of the original songs. You may use it for private study, scholarship, research or language learning purposes only