» » »

Distillers - The Hunger Tabs

Artists:  A B C D E F G H I J K L M N O P Q R S T U V W X Y Z # 

The Hunger Tabs

(ver. 3) Click to play this song!
Distillers
 Rating:
4/5 (4 votes)

 The Hunger lessons Tabs too difficult? Try these video lessons and learn fast
 
                VERSE
e|-0-0-0-0-------------------------------------------------------------------------
B|-1-1-1-0-------------------------------------------------------------------------
G|-2-0-2-1---------------------------------------------------------------
D|-2-2-2-2---------------------------------------------------------------------
A|-0-3-0-2-------------------------------------------------------------------------
E|---0---0-------------------------------------------------------------------------

CHORUS
e|---0---0--------------------------------------------------------------------------
B|---0---0-------------------------------------------------------------------------
G|---2---2-----------------------------------------------------------------------
D|-5-2-3-2-------------------------------------------------------------------------
A|-5-1-3-1-------------------------------------------------------------------------
E|-3-0-1-0--------------------------------------------------------------------------

FIRST SOLO.ALL SLID
e|----------------------------------------------------------------------------------
B|----------------------------------------------------------------------------------
G|---------------------------------------------------------------------------
D|-7-5----2-2-3-3-2-----7-5-7-5-5-7-7-9-----9-7-7-5-5-7----------------------
A|----------------------------------------------------------------------------------
E|----------------------------------------------------------------------------------

VERSE
CHORUS

THEN PLAY THE VERSE TWICE BEFORE GOING INTO THE MAIN SOLO
MAIN SOLO
e|----------------------------------------------------------------------------------
B|----------------------------------------------------------------------------------
G|5-5-4-4--------------------X2----5-5-4-4-6/8-6-7-5---5-5-4-4---^-----------------
D|--------5--5/7-7\6-5-6-7-6-----------------------------------5-5-----------------
A|----------------------------------------------------------------------------------
E|----------------------------------------------------------------------------------
i'm pretty sure that this solo is right.i watched brody play it manchester and it looked the same

after that you go back into the verse and then onto the chorus.
and then theres a big pause and i think this is whats played when it comes back in but i'm not sure
e||---------------------------------------------------------------------------------
B||---------------------------------------------------------------------------------
G||---------------------------------------------------------------------------------
D||--2-5-0-1------------------------------------------------------------------------
A||---------------------------------------------------------------------------------
E||---------------------------------------------------------------------------------
            
Submit corrections


        The Hunger lessons Hard to play? Try these video lessons and learn fast The Hunger lessons
        
↑ Back to top | Tablatures and chords for acoustic guitar and electric guitar, ukulele, drums are parodies/interpretations of the original songs. You may use it for private study, scholarship, research or language learning purposes only