» » »

Distillers - Sing Sing Death House Tabs

Artists:  A B C D E F G H I J K L M N O P Q R S T U V W X Y Z # 

Sing Sing Death House Tabs

(ver. 3) Click to play this song!
Distillers
 Rating:
4/5 (4 votes)

 Sing Sing Death House lessons Tabs too difficult? Try these video lessons and learn fast
 
                intro/verse


e------*************************
b------*************************	lots of scratchin and harmonics 
d----11*************************
a----11*************************
E----9-*************************



E---------------------------------------------------------------------
B---------------------------------------------------------------------
G----11-11-11-11------------------------------------------11-11-11-11-
D----11-11-11-11----7777/10/9/10/9---10-10-10-10--9999----11-11-11-11-
A-----9--9--9--9----7777/10/9/10/9---10-10-10-10--9999-----9--9--9--9-
E-------------------5555/-8/7/-8/7----8--8--8--8--7777----------------

chorus
E------------------------------------------
B------------------------------------------
G---------11/9/777777---------7/9----------
D---99----11/9/777777----77---7/9---999999-
A---99-----9/7/555555----77---5/7---999999-
E---77-------------------55---------777777-



outro
e-----------------------------------
b-----------------------------------
g-----------------------11-11-11-11-
d--10-10-10-10--9999----11-11-11-11-	*3
a--10-10-10-10--9999-----9--9--9--9-
e---8--8--8--8--7777----------------



E-----------------------------------
B-----------------------------------
G-----------------------------------
D---7----9----7---10---9----7----4--
A---7----9----7---10---9----7----4--
E---5----7----5----8---7----5----2--
            
Submit corrections


        Sing Sing Death House lessons Hard to play? Try these video lessons and learn fast Sing Sing Death House lessons
        
↑ Back to top | Tablatures and chords for acoustic guitar and electric guitar, ukulele, drums are parodies/interpretations of the original songs. You may use it for private study, scholarship, research or language learning purposes only