» » »

Distillers - Lordy Lordy Tabs

Artists:  A B C D E F G H I J K L M N O P Q R S T U V W X Y Z # 

Lordy Lordy Tabs

(ver. 1) Click to play this song!
Distillers
 Rating:
4/5 (4 votes)

 Lordy Lordy lessons Tabs too difficult? Try these video lessons and learn fast
 
                INTRO: (palm mute)
e ----------------------------------
B ----------------------------------
G --(5/6)--(5/6)---7--(6)--(1)------
D ---6/7----6/7----7---7----2---7---
A ---6/7----6/7----5---7----2---7---
E ---4/5----4/5--------5----0---5---

VERSE:
e -----------------------
B -----------------------
G ---7--------9----------
D ---7---7----9---7------
A ---5---7----7---7------
E -------5--------5------

e -----------------------
B -----------------------
G ---7--------9----------
D ---7---7----9----------
A ---5---7----7----------
E -------5---------------

e -----------------------------------------------
B -----------------------------------------------
G ------------------7------------9-----7---------
D ---6/7----6/7-----7----7-------9-----7-----7---
A ---6/7----6/7-----5----7-------7-----5-----7---
E ---4/5----4/5----------5-------------------5---

BRIDGE:
e ---------------------------
B ---------------------------
G ---7~---------9~-----------
D ---7~---7~----9~---7~------
A ---5~---7~----7~---7~------
E --------5~---------5~------

('solo')
e ----------------------------------8-8-------------
B ------------------------------10------8-10--------
G --9b--9b--9b--------------9b----------------------
D ------------12-10---------------------------------
A ------------------12------------------------------
E --------------------------------------------------

END:
e -----------------------------------------------
B -----------------------------------------------
G ------------------7------------9-----7---------
D ---6/7----6/7-----7----7-------9-----7-----7---
A ---6/7----6/7-----5----7-------7-----5-----7---
E ---4/5----4/5----------5-------------------5---

^.o^<
            
Submit corrections


        Lordy Lordy lessons Hard to play? Try these video lessons and learn fast Lordy Lordy lessons
        
↑ Back to top | Tablatures and chords for acoustic guitar and electric guitar, ukulele, drums are parodies/interpretations of the original songs. You may use it for private study, scholarship, research or language learning purposes only