» » »

Distillers - Gypsy Rose Lee Tabs

Artists:  A B C D E F G H I J K L M N O P Q R S T U V W X Y Z # 

Gypsy Rose Lee Tabs

(ver. 1) Click to play this song!
Distillers
 Rating:
4.4/5 (7 votes)

 Gypsy Rose Lee lessons Tabs too difficult? Try these video lessons and learn fast
 
                ok i updated this cause my friend was all 'waaa i want the single-noted cr*p in the beginning!' so i took like five minutes, and came up with this. i might be missing some notes in the intro... but i'll finish it later
INTRO:
e --2----(0-0)----0--(3-3-0)-
B --3--3-------0--2----------
G --2--0-------4--2----------
D --0--0-------4--2----------
A -----2-------2--0----------
E -----3---------------------

e --2-----0-------0---
B --3--3--0-------2---
G --2--0--4-------2---
D --0--0--4--(4)--2---
A -----2--2-------0---
E -----3--------------

VERSE/CHORUS:
e -----------------
B -----------------
G --7-------9------
D --7---5---9---7--
A --5---5---7---7--
E ------3-------5--

"Break it down..":
e ---------------
B ---------------
G -----7---------
D --7--7--5--7---
A --7--5--5--7---
E --5-----3--5---

^..^<
            
Submit corrections


        Gypsy Rose Lee lessons Hard to play? Try these video lessons and learn fast Gypsy Rose Lee lessons
        
↑ Back to top | Tablatures and chords for acoustic guitar and electric guitar, ukulele, drums are parodies/interpretations of the original songs. You may use it for private study, scholarship, research or language learning purposes only