» » »

Distillers - City Of Angels Tabs

Artists:  A B C D E F G H I J K L M N O P Q R S T U V W X Y Z # 

City Of Angels Tabs

(ver. 3) Click to play this song!
Distillers
 Rating:
4.4/5 (7 votes)

 City Of Angels lessons Tabs too difficult? Try these video lessons and learn fast
 
                This songs great and really only has 1 riff
Main riff
-----------------------------------------------------------
---------------------------------------------------------^-
-------------6-7-7-7-7-7-7---------------8-9-9-9-9-9-9---7-
-5-5-5-5-5-5-6-7-7-7-7-7-7-6-7-7-7-7-7-7-8-9-9-9-9-9-9-----x2(only bend the The 
-5-5-5-5-5-5-4-5-5-5-5-5-5-6-7-7-7-7-7-7-6-7-7-7-7-7-7-----  g string 2nd time)
-3-3-3-3-3-3---------------4-5-5-5-5-5-5-------------------

Verse
--------------------------------------------------
--------------------------------------------------
-------------7--7--7--7--------------9--9--9--9---
-5--5--5--5--7--7--7--7--7--7--7--7--9--9--9--9---x4
-5--5--5--5--5--5--5--5--7--7--7--7--7--7--7--7---
-3--3--3--3--------------5--5--5--5---------------

Chorus is the same as the verse except you strum the chords 6 times each

Bridge
-------------------------------------
-------------------------------------
-----7-------9--7h9------------------
-5---7---7---9-----------------------
-5---5---7---7-----------------------
-3-------5---------------------------
Then do something like the verse then the chorus
and end on
-------------------------------------------------
-------------------------------------------------
-----7-------------------------------------------
-5---7---7--5h7-5h7-5h7-5h7-5h7--7---------------
-5---5---7-----------------------7---------------
-3-------5-----------------------5---------------
Pleez rate this and correct it
            
Submit corrections


        City Of Angels lessons Hard to play? Try these video lessons and learn fast City Of Angels lessons
        
↑ Back to top | Tablatures and chords for acoustic guitar and electric guitar, ukulele, drums are parodies/interpretations of the original songs. You may use it for private study, scholarship, research or language learning purposes only