Home » D » Discharge »

Discharge - Never Again Tabs

Artists:  A B C D E F G H I J K L M N O P Q R S T U V W X Y Z # 

Never Again Tabs

(ver. 2) Click to play this song!
Discharge
 Rating:
4/5 (4 votes)
                Main Riff (Intro)                                                                       x6      
e||------------------------------------------------|------------------------------------------||
B||*-----------------------------------------------|-----------------------------------------*||
G||---10--10---10-10-10-10---10--10---10-10-10-10--|-10--10---10-10-10-10---------------------||
D||----8---8----8--8--8--8----8---8----8--8--8--8--|--8---8----8--8--8--8---11-11-1111-1111---||
A||*-----------------------------------------------|-------------------------9--9--9-9--9-9--*||
E||------------------------------------------------|------------------------------------------||

Main Riff (Verse 1)                                                                     x2
e||------------------------------------------------|------------------------------------------||
B||*-----------------------------------------------|-----------------------------------------*||
G||---10--10---10-10-10-10---10--10---10-10-10-10--|-10--10---10-10-10-10---------------------||
D||----8---8----8--8--8--8----8---8----8--8--8--8--|--8---8----8--8--8--8---11-11-1111-1111---||
A||*-----------------------------------------------|-------------------------9--9--9-9--9-9--*||
E||------------------------------------------------|------------------------------------------||
       A  blinding  light,   winds and firestorms             agonised      crying 

Chorus                                                  x4
e||-------------------------------|---------------------------||
B||*------------------------------|--------------------------*||
G||-------------------------------|---------------------------||
D||-------------------------------|---------------------------||
A||*--9---9-9-9-9-9-9-9-9-9-9-9-9-|-9-1010-1010--9-1010-1010-*||
E||---7---7-7-7-7-7-7-7-7-7-7-7-7-|-7--8-8--8-8--7--8-8--8-8--||
     PM-------------------------|
      Never   never   never again

      Never   never   never again


Main Riff (Verse 2)                                                                     x4
e||------------------------------------------------|------------------------------------------||
B||*-----------------------------------------------|-----------------------------------------*||
G||---10--10---10-10-10-10---10--10---10-10-10-10--|-10--10---10-10-10-10---------------------||
D||----8---8----8--8--8--8----8---8----8--8--8--8--|--8---8----8--8--8--8---11-11-1111-1111---||
A||*-----------------------------------------------|-------------------------9--9--9-9--9-9--*||
E||------------------------------------------------|------------------------------------------||
      Un-   -answered       cries              of    help,       panic      and desperation

Chorus                                                  x4
e||-------------------------------|---------------------------||
B||*------------------------------|--------------------------*||
G||-------------------------------|---------------------------||
D||-------------------------------|---------------------------||
A||*--9---9-9-9-9-9-9-9-9-9-9-9-9-|-9-1010-1010--9-1010-1010-*||
E||---7---7-7-7-7-7-7-7-7-7-7-7-7-|-7--8-8--8-8--7--8-8--8-8--||
     PM-------------------------|
      Never   never   never again

      Never   never   never again

Main Riff (Pre-Solo)                                                                    x3
e||------------------------------------------------|------------------------------------------||
B||*-----------------------------------------------|-----------------------------------------*||
G||---10--10---10-10-10-10---10--10---10-10-10-10--|-10--10---10-10-10-10---------------------||
D||----8---8----8--8--8--8----8---8----8--8--8--8--|--8---8----8--8--8--8---11-11-1111-1111---||
A||*-----------------------------------------------|-------------------------9--9--9-9--9-9--*||
E||------------------------------------------------|------------------------------------------||

  Guitar 1
e|---------------------------------|----------------------------------|
B|---------------------------------|----------------------------------|
G|-6p0h6p0h6p0h6p0h6p0h6p0h6p0h6p0-|-h7p0h7p0h7p0h7p0h7p0h7p0h7p0h7p0-|
D|---------------------------------|----------------------------------|
A|---------------------------------|----------------------------------|
E|---------------------------------|----------------------------------|
 |
 |Guitar 2 
e|-----------------------------------|------------------------------------------|
B|-6---6---6---6---6---6---6---6-----|-8----8----8----8----8----8----8----8-----|
G|-8b108b108b108b108b108b108b108b10--|-10b1210b1210b1210b1210b1210b1210b1210b12-|
D|-----------------------------------|------------------------------------------|
A|-----------------------------------|------------------------------------------|
E|-----------------------------------|------------------------------------------|
   ============================================================================

  Guitar 1
e|----------------------------------|--------------------------------------------|
H|----------------------------------|--------------------------------------------|
G|-h8p0h8p0h8p0h8p0h8p0h8p0h8p0h8p0-|-h10p0hg10p0h10p0h10p0h10p0hg10p0h10p0h10p0-|
D|----------------------------------|--------------------------------------------|
A|----------------------------------|--------------------------------------------|
E|----------------------------------|--------------------------------------------|
 |
 |Guitar 2
e|------------------------------------------|------------------------------------------|
B|-8----8----8----8----8----8----8----8-----|-10---10---10---10---10---10---10---10----|
G|-10b1210b1210b1210b1210b1210b1210b1210b12-|-12b1412b1412b1412b1412b1412b1412b1412b14-|
D|------------------------------------------|------------------------------------------|
A|------------------------------------------|------------------------------------------|
E|------------------------------------------|------------------------------------------|
   ===================================================================================

  Guitar 1
e|---------------------------------------------------------------|----------------------------------------|
B|---------------------------------------------------------------|----------------------------------------|
G|---------------------------------------------------------------|----------------------------------------|
D|--17--19b20r19-17-17-17-17-17-17--19b20r19--17-17-17-17-17-17--|--19b20r19-17-17-17-17-17-17---12~~-----|
A|---------------------------------------------------------------|----------------------------------------|
E|---------------------------------------------------------------|----------------------------------------|
 |
 |Guitar 2  
e|------------------------------------------------|------------------------------------------|
B|------------------------------------------------|------------------------------------------|
G|---10--10---10-10-10-10---10--10---10-10-10-10--|-10--10---10-10-10-10---------------------|
D|----8---8----8--8--8--8----8---8----8--8--8--8--|--8---8----8--8--8--8---11-11-1111-1111---|
A|------------------------------------------------|-------------------------9--9--9-9--9-9---|
E|------------------------------------------------|------------------------------------------|


  Guitar 1
e|---------------------------------------------------------------|----------------------------------------|
B|---------------------------------------------------------------|-------------------------------18~~-----|
G|---------------------------------------------------------------|----------------------------------------|
D|--17--19b20r19-17-17-17-17-17-17--19b20r19--17-17-17-17-17-17--|--19b20r19-17-17-17-17-17-17------------|
A|---------------------------------------------------------------|----------------------------------------|
E|---------------------------------------------------------------|----------------------------------------|
 |
 |Guitar 2  
e|------------------------------------------------|------------------------------------------|
B|------------------------------------------------|------------------------------------------|
G|---10--10---10-10-10-10---10--10---10-10-10-10--|-10--10---10-10-10-10---------------------|
D|----8---8----8--8--8--8----8---8----8--8--8--8--|--8---8----8--8--8--8---11-11-1111-1111---|
A|------------------------------------------------|-------------------------9--9--9-9--9-9---|
E|------------------------------------------------|------------------------------------------|



 |Guitar 1
e|------------------------------------------|------------------------------|
B|-11---11---11---11---11---11---11---11----|-13---------------------------|
G|-13b1513b1513b1513b1513b1513b1513b1513b15-|-12b14r12-12p10-12~-----------|
D|------------------------------------------|------------------------------|
A|------------------------------------------|------------------------------|
E|------------------------------------------|------------------------------|
 | ========================================
 |Guitar 2
e|------------------------------------------|------------------------------------------|
B|-11---11---11---11---11---11---11---11----|-13---13---13---13---13---13---13---13----|
G|-13b1513b1513b1513b1513b1513b1513b1513b15-|-15b1715b1715b1715b1715b1715b1715b1715b17-|
D|------------------------------------------|------------------------------------------|
A|------------------------------------------|------------------------------------------|
E|------------------------------------------|------------------------------------------|
   ===================================================================================


 |Guitar 1
e|-----------------------------------------------|--8-----8-----8---------9-----|
B|-----------------------------------------------|--11b13r12b13r12b13r11--12b14-|
G|-----------------------------------------------|------------------------------|
D|-----10--12p10----12p11p10---------10-12p10-12-|------------------------------|
A|-12------------12----------12--12--------------|------------------------------|
E|-----------------------------------------------|------------------------------|
 |
 |Guitar 2  
e|------------------------------------------------|------------------------------------------|
B|------------------------------------------------|------------------------------------------|
G|---10--10---10-10-10-10---10--10---10-10-10-10--|-10--10---10-10-10-10---------------------|
D|----8---8----8--8--8--8----8---8----8--8--8--8--|--8---8----8--8--8--8---11-11-1111-1111---|
A|------------------------------------------------|-------------------------9--9--9-9--9-9---|
E|------------------------------------------------|------------------------------------------|



Main Riff (Verse 3)                                                                     x3
e||------------------------------------------------|------------------------------------------||
B||*-----------------------------------------------|-----------------------------------------*||
G||---10--10---10-10-10-10---10--10---10-10-10-10--|-10--10---10-10-10-10---------------------||
D||----8---8----8--8--8--8----8---8----8--8--8--8--|--8---8----8--8--8--8---11-11-1111-1111---||
A||*-----------------------------------------------|-------------------------9--9--9-9--9-9--*||
E||------------------------------------------------|------------------------------------------||
      Dazed               and      stricken       survivors      search   for lost families


Chorus                                                  x4
e||-------------------------------|---------------------------||
B||*------------------------------|--------------------------*||
G||-------------------------------|---------------------------||
D||-------------------------------|---------------------------||
A||*--9---9-9-9-9-9-9-9-9-9-9-9-9-|-9-1010-1010--9-1010-1010-*||
E||---7---7-7-7-7-7-7-7-7-7-7-7-7-|-7--8-8--8-8--7--8-8--8-8--||
     PM-------------------------|
      Never   never   never again

      Never   never   never again


Main Riff (Verse 4)                                                                     x4
e||------------------------------------------------|------------------------------------------||
B||*-----------------------------------------------|-----------------------------------------*||
G||---10--10---10-10-10-10---10--10---10-10-10-10--|-10--10---10-10-10-10---------------------||
D||----8---8----8--8--8--8----8---8----8--8--8--8--|--8---8----8--8--8--8---11-11-1111-1111---||
A||*-----------------------------------------------|-------------------------9--9--9-9--9-9--*||
E||------------------------------------------------|------------------------------------------||
      Choking    lust,       crazy with thirst,      drinking from poisoned pools and streams

Chorus                                                  x4
e||-------------------------------|---------------------------||
B||*------------------------------|--------------------------*||
G||-------------------------------|---------------------------||
D||-------------------------------|---------------------------||
A||*--9---9-9-9-9-9-9-9-9-9-9-9-9-|-9-1010-1010--9-1010-1010-*||
E||---7---7-7-7-7-7-7-7-7-7-7-7-7-|-7--8-8--8-8--7--8-8--8-8--||
     PM-------------------------|
      Never   never   never again

      Never   never   never again            
Submit corrections

↑ Back to top | Tablatures and chords for acoustic guitar and electric guitar, ukulele, drums are parodies/interpretations of the original songs. You may use it for private study, scholarship, research or language learning purposes only