Home » D » Dinosaur Pile-up »

Dinosaur Pile-up - Summer Gurl Tabs

Artists:  A B C D E F G H I J K L M N O P Q R S T U V W X Y Z # 

Summer Gurl Tabs

(ver. 1) Click to play this song!
Dinosaur Pile-up
-----------------------------------------------------------------------------
-----------------------------------------------------------------------------

Tuning: Drop D

Intro

e|-----------------------------------------------|
B|-6-x-66444-9-x-99111111-6-x-66444-9-x-99111111-|
G|-6-x-66444-9-x-99111111-6-x-66444-9-x-99111111-|
D|-6-x-66444-9-x-99111111-6-x-66444-9-x-99111111-|x2
A|-4-x-44222-7-x-779-9-9--4-x-44222-7-x-779-9-9--|
D|-----------------------------------------------|

Verse

e|-------------------------------------------------------|
B|-------------------------------------------------------|
G|-------------------------------------------------------|
D|-11~11111191114-11~11111191114-11~11111191114-2~222444-|x2
A|-11~11111191114-11~11111191114-11~11111191114-2~222444-|
D|-11~11111191114-11~11111191114-11~11111191114-2~222444-|
      |---------|    |---------|    |---------|   |----|
          PM             PM              PM        PM

Pre Chorus

e|---------------------------------------------------------------------|
B|---------------------------------------------------------------------|
G|---------------------------------------------------------------------|
D|-6666666666666666-6666666666666666-6666666666666666-6666644443333222-|
A|-4444466677777999-4444466677777999-4444466677777999-4444422221111000-|
D|---------------------------------------------------------------------|
   |--------------| |--------------| |--------------|
          PM               PM               PM

Chorus

e|----------------------------------------------|
B|-6-x-66444-9-x-99111111-6-x-66444-9-x-99------|
G|-6-x-66444-9-x-99111111-6-x-66444-9-x-99-DRUM-|
D|-6-x-66444-9-x-99111111-6-x-66444-9-x-99-FILL-|
A|-4-x-44222-7-x-779-9-9--4-x-44222-7-x-77------|
D|----------------------------------------------|

e|-------------------------------------------------|
B|-6-x-66444-9-x-99111111-6-x-66444-9-x-99---------|
G|-6-x-66444-9-x-99111111-6-x-66444-9-x-99-PICK----|
D|-6-x-66444-9-x-99111111-6-x-66444-9-x-99-SCRATCH-|
A|-4-x-44222-7-x-779-9-9--4-x-44222-7-x-77---------|
D|-------------------------------------------------|

Alternative Chorus (2nd Guitar)

e|-------------------------------------------|
B|-6-x-66444---x-------6-x-66444-9-x---------|
G|-6-x-66444---x-------6-x-66444-9-x----DRUM-|
D|-6-x-66444-2-x-22444-6-x-66444-9-x-22-FILL-|
A|-4-x-44222-2-x-22444-4-x-44222-2-x-22------|
D|-----------2---22444-----------2---22------|

e|----------------------------------------------|
B|-6-x-66444---x-------6-x-66444-9-x------------|
G|-6-x-66444---x-------6-x-66444-9-x----PICK----|
D|-6-x-66444-2-x-22444-6-x-66444-9-x-22-SCRATCH-|
A|-4-x-44222-2-x-22444-4-x-44222-2-x-22---------|
D|-----------2---22444-----------2---22---------|

Riff

e|-------------------------------------------0---------|
B|-7b8br7b8br7b8br7b8br7b8br7b8br7b8br7b8br7-0-HIT-----|
G|-------------------------------------------0-OPEN----|
D|-------------------------------------------0-STRINGS-|
A|-------------------------------------------0-HARD----|
D|-------------------------------------------0---------|

e|---------------------------|
B|---------------------------|
G|---------------------------|
D|-11-11-11-9-1111-11-11-911-|
A|-11-11-11-9-1111-11-11-911-|
D|-11-11-11-9-1111-11-11-911-|

e|-------------------------------------------9~~~~~~~~~~99999-|
B|-7b8br7b8br7b8br7b8br7b8br7b8br7b8br7b8br7-12b14~~~~~~br12--|
G|------------------------------------------------------------|
D|------------------------------------------------------------|
A|------------------------------------------------------------|
D|------------------------------------------------------------|

e|--------------------------------------------------|
B|-7b8br7b8br7b8br7b8br7b8br7b8br7b8br7b8br7--------|
G|--------------------------------------------------|
D|-------------------------------------------/6/7\6-|
A|--------------------------------------------------|
D|-------------------------------------------/6/7\6-|

e|---------------------------|
B|---------------------------|
G|---------------------------|
D|-11-11-11-9-1111-11-11-911-|
A|-11-11-11-9-1111-11-11-911-|
D|-11-11-11-9-1111-11-11-911-|


e|----------------------------------|
B|-7b8br7b8br7b8br7b8br7------------|
G|-----------------------5b6br5-4\1-|
D|----------------------------------|
A|----------------------------------|
D|----------------------------------|

Re-Intro

e|-----------------------------------------------|
B|-6-x-66444-9-x-99111111-6-x-66444-9-x-99111111-|
G|-6-x-66444-9-x-99111111-6-x-66444-9-x-99111111-|
D|-6-x-66444-9-x-99111111-6-x-66444-9-x-99111111-|
A|-4-x-44222-7-x-779-9-9--4-x-44222-7-x-779-9-9--|
D|-----------------------------------------------|

Ending

e|-----------------------------------------|----------|
B|-6666644499999111111-6666644499999111111-|-66~~~~6\-|
G|-6666644499999111111-6666644499999111111-|-66~~~~6\-|
D|-6666644499999111111-6666644499999111111-|-66~~~~6\-|
A|-44444222777779-9-9--44444222777779-9-9--|-44~~~~4\-|
D|-----------------------------------------|----------|

Song Structure

Intro
Verse
Pre-Chorus
Chorus
Verse
Pre-Chorus
Chorus
RIFF
Re-Intro
Chorus
Ending

************************************

| /   slide up
| \   slide down
| h   hammer-on
| p   pull-off
| ~   vibrato
| +   harmonic
| x   Mute note
| b   Bend
| pb  Pre-bend
| br  Bend release
| pbr Pre-bend release
| brb Bend release bend

************************************
            
Submit corrections

↑ Back to top | Tablatures and chords for acoustic guitar and electric guitar, ukulele, drums are parodies/interpretations of the original songs. You may use it for private study, scholarship, research or language learning purposes only