Home » D » Dinosaur Jr. »

Dinosaur Jr. - Let It Ride Chords

Artists:  A B C D E F G H I J K L M N O P Q R S T U V W X Y Z # 

Let It Ride Chords

(ver. 1) Click to play this song!
Dinosaur Jr.
INTRO X 4

e|-------7--7--7--7---------------3--3--3--3---------------------------------|
B|-------7--7--7--7---------------3--3--3--3---------------------------------|
G|-------8--8--8--8---------------4--4--4--4---------------------------------|
D|-------9--9--9--9---------------5--5--5--5---------------------------------|
A|-------9--9--9--9---------------5--5--5--5---------------------------------|
E|---------------------------------------------------------------------------|
            B                          G

CHORUS

e|-------4-4-4-4-----4-4-4-4-----5-5-5-5-5-5-5-5-----------------------------|
B|-------5-5-5-5-----4-4-4-4-----5-5-5-5-5-5-5-5-----------------------------|
G|-------6-6-6-6-----5-5-5-5-----6-6-6-6-6-6-6-6-----------------------------|
D|-------6-6-6-6-----6-6-6-6-----7-7-7-7-7-7-7-7-----------------------------|
A|-------4-4-4-4-----6-6-6-6-----7-7-7-7-7-7-7-7-----------------------------|
E|-------------------4-4-4-4-----5-5-5-5-5-5-5-5-----------------------------|
           C#           G#             A

VERSE

e|-------4-4-4-4-4-4-4-4-----7-7-7-7---5-5-5-5-------------------------------|
B|-------4-4-4-4-4-4-4-4-----7-7-7-7---5-5-5-5-------------------------------|
G|-------5-5-5-5-5-5-5-5-----8-8-8-8---6-6-6-6-------------------------------|
D|-------6-6-6-6-6-6-6-6-----9-9-9-9---7-7-7-7-------------------------------|
A|-------6-6-6-6-6-6-6-6-----9-9-9-9---7-7-7-7-------------------------------|
E|-------4-4-4-4-4-4-4-4-----------------------------------------------------|
                G#              B         A
I think this fill is only played once.
For this B chord, swing your pinky onto the 9th fret of the b string occasionally.
Listen to the CD and you'll hear the right timing.

e|-----7-7-7-7----------------------5-5-5-5-5-5-5----------------------------|
B|-----7-7-7-9-- X 3       ---------5-5-5-5-5-5-5----------------------------|
G|-----8-8-8-8----------------------6-6-6-6-6-6-6----------------------------|
D|-----9-9-9-9----------------------7-7-7-7-7-7-7----------------------------|
A|---------------------------------------------------------------------------|
E|---------------------------------------------------------------------------|
        B                                A

PRECHORUS JAM THING

e|----0-0-0-0---2-2-2-2---2-2-2-2---3-3-3-3----------------------------------|
B|----0-0-0-0---3-3-3-3---2-2-2-2---4-4-4-4----------------------------------|
G|----1-1-1-1---2-2-2-2---4-4-4-4---5-5-5-5----------------------------------|
D|----2-2-2-2---0-0-0-0---4-4-4-4---5-5-5-5----------------------------------|
A|----2-2-2-2-------------2-2-2-2---3-3-3-3----------------------------------|
E|----0-0-0-0----------------------------------------------------------------|
         E         D        Bm         C 

There's this little riff towards the end

e|---------------------------------------------------------------------------|
B|---------------------------------------------------------------------------|
G|---------------------------------------4-4-4-4----5-5-5-5------------------|
D|--------------------------4------------4-4-4-4----5-5-5-5------------------|
A|-----------------5--5-5--------5-------2-2-2-2----3-3-3-3------------------|
E|---0--0-----5h7------------------------------------------------------------|
                                            B           C            
Submit corrections

↑ Back to top | Tablatures and chords for acoustic guitar and electric guitar, ukulele, drums are parodies/interpretations of the original songs. You may use it for private study, scholarship, research or language learning purposes only