Home » D » Dinosaur Jr. »

Dinosaur Jr. - I Walk For Miles Chords

Artists:  A B C D E F G H I J K L M N O P Q R S T U V W X Y Z # 

I Walk For Miles Chords

(ver. 1) Click to play this song!
Dinosaur Jr.
info: 
-song key: C#m
-capo 2nd fret, all chords relative to capo
-riff 1 :    B5                 E5        A5
          e-----------------------------------------------|
          B-----------------------------------------------|
          G--4--4---------------------x-x-2-2-x-x-2-2-x-x-|
          D--4--4---------------2--2--x-x-2-2-x-x-2-2-x-x-|
          A--2--2---------------2--2--x-x-0-0-x-x-0-0-x-x-|
          E-------2-2-h3-2-3-2--0--0----------------------|

-chorus F#5 & G5 palm mute          
-riff 2 :    B5             A5               G
          e-------------------------------------3--------0--2--3--2--|
          B-------------------------------------0--2--3--------------|
          G--4--4--------------2----------------0--------------------|
          D--4--4--------------2----------------0--------------------|
          A--2--2---2-h4-2--0--0---0-2-0---0----2--------------------|
          E------------------------------3---3--3--------------------|



[intro]
(riff1)   (x4)


[verse]
(riff1)
I walk for miles 
I came for you 
Stop for a while
I came unglued

Left get me tired
What's left to do
Left there so tired
Won't hold of you


[chorus]
F#5   G
      F#5    G
In my state
      F#5        G
In my loneliness
       F#5          G
In the only place I wait


[verse]
(riff1)
I walk for miles 
I came for you 
Stop for a while
I came unglued

Left get me tired
What's left to do
Left there so tired
Won't hold of you


[chorus]
F#5   G
      F#5    G
In my state
      F#5        G
In my loneliness
       F#5          G
In the only place I wait


[bridge]
(riff2)  B5   A5   G
                B5    A5    G
Set my heart is too
                B5    A5    G
Set my beats on you


[solo]
(riff2)  B5   A5   G  (x4)
B5   


[verse]
(riff1)
I walk for miles 
I came for you 
I walk for miles
I came unglued

Left get me tired
What's left to do
Left there so tired
Won't hold of you


[solo]
(riff1)  (x13)
Bm            
Submit corrections

↑ Back to top | Tablatures and chords for acoustic guitar and electric guitar, ukulele, drums are parodies/interpretations of the original songs. You may use it for private study, scholarship, research or language learning purposes only