» » »

Dillinger Escape Plan - Milk Lizard Tabs

Artists:  A B C D E F G H I J K L M N O P Q R S T U V W X Y Z # 

Milk Lizard Tabs

(ver. 1) Click to play this song!
Dillinger Escape Plan
 Rating:
4/5 (17 votes)

 Milk Lizard lessons Tabs too difficult? Try these video lessons and learn fast
 
                E||-----|--------------------------|--------------------------|
B||-----|--------------------------|--------------------------|
G||-----|--------------------------|--------------------------|
D||-----|--------------------------|--------------------------|
A||--6--|--L-----5-----2-----------|--5-----2--------4--L--6--|
E||--4--|--L--4-----4-----4--4--4--|-----4-----4--4--2--L--4--|


  E  E  E  E  E  E  E  E     E  E  E  E  E  E  E  E   
--------------------------|--------------------------|
--------------------------|--------------------------|
--------------------------|--------------------------|
--------------------------|--------------------------|
--L-----5-----2-----------|--5-----2--------4--L--6--|
--L--4-----4-----4--4--4--|-----4-----4--4--2--L--4--|


  E  E  E  E  E  E  E  E     E  E  E  E  E  E  E  E   
--------------------------|--------------------------|
--------------------------|--------------------------|
--------------------------|--------------------------|
--------------------------|--------------------------|
--L-----5-----2-----------|--5--4--2--------4--L--6--|
--L--4-----4-----4--4--4--|-----------4--3--2--L--4--|


  E  E  E  E  E  E  E  E     E  E.  S E.  S E.  S E   
--------------------------|--------------------------|
--------------------------|--------------------------|
--------------------------|--------------------------|
--------------------------|--------------------------|
--L-----5-----2-----------|--5--4-----4-----5-----6--|
--L--4-----4-----4--4--4--|-----2-----2-----3-----4--|


  E  E  E  E  E  E  E  E     E  E  E  E  E  E  E  E   
--------------------------|--------------------------|
--------------------------|--------------------------|
--------------------------|--------------------------|
--------------------------|--------------------------|
--L-----5-----2-----------|--5-----2--------4--L--6--|
--L--4-----4-----4--4--4--|-----4-----4--4--2--L--4--|


  E  E  E  E  E  E  E  E     E  E  E  E  E  E  E  E   
--------------------------|--------------------------|
--------------------------|--------------------------|
--------------------------|--------------------------|
--------------------------|--------------------------|
--L-----5-----2-----------|--5-----2--------4--L--6--|
--L--4-----4-----4--4--4--|-----4-----4--4--2--L--4--|


  E  E  E  E  E  E  E  E     E  E  E  E  E  E  E  E   
--------------------------|--------------------------|
--------------------------|--------------------------|
--------------------------|--------------------------|
--------------------------|--------------------------|
--L-----5-----2-----------|--5-----2--------4--L--6--|
--L--4-----4-----4--4--4--|-----4-----4--4--2--L--4--|


  E  E  E  E  E  E  E  E     E  E.  S E.  S E.  S E   
--------------------------|--------------------------|
--------------------------|--------------------------|
--------------------------|--------------------------|
--------------------------|--------------------------|
--L-----5-----2-----------|--5--4-----4-----5-----6--|
--L--4-----4-----4--4--4--|-----2-----2-----3-----4--|


  E  E  E  E  E  E  E  E     E  E  E  E  E  E  E  E   
--------------------------|--------------------------|
--------------------------|--------------------------|
--------------------------|--------------------------|
--------------------------|--------------------------|
--L-----5-----2-----------|--5-----2--------4--L--6--|
--L--4-----4-----4--4--4--|-----4-----4--4--2--L--4--|


  E  E  E  E  E  E  E  E     E  E  E  E  E  E  E  E   
--------------------------|--------------------------|
--------------------------|--------------------------|
--------------------------|--------------------------|
--------------------------|--------------------------|
--L-----5-----2-----------|--5-----2--------4--L--6--|
--L--4-----4-----4--4--4--|-----4-----4--4--2--L--4--|


  E  E  E  E  E  E  E  E     E  E  E  E  E  E  E  E   
--------------------------|--------------------------|
--------------------------|--------------------------|
--------------------------|--------------------------|
--------------------------|--------------------------|
--L-----5-----2-----------|--5-----2--------4--L--6--|
--L--4-----4-----4--4--4--|-----4-----4--4--2--L--4--|


  E  E  E  E  E  E  E  E     E  E.  S E.  S E.  S E     W                 
--------------------------|--------------------------|-------------------|
--------------------------|--------------------------|-------------------|
--------------------------|--------------------------|-------------------|
--------------------------|--------------------------|-------------------|
--L-----5-----2-----------|--5--4-----4-----5-----6--|-------------------|
--L--4-----4-----4--4--4--|-----2-----2-----3-----4--|-------------------|


  E  E  E  E  E  E  E  E     E  E  E  E  E  E  E  E   
--------------------------|--------------------------|
--------------------------|--------------------------|
--------------------------|--------------------------|
--L--4--4--4--4--4--4--4--|--4--4--4--4--4--4--4-----|
--L--4--4--4--4--4--4--4--|--4--4--4--4--4--4--4--6--|
--L--2--2--2--2--2--2--2--|--2--2--2--2--2--2--2--4--|


  E  E  E  E  E  E  E  E     E  E  E  E  E  E  E  E   
--------------------------|--------------------------|
--------------------------|--------------------------|
--------------------------|--------------------------|
--------------------------|--------------------------|
--L-----5-----2-----------|--5-----2--------4--L--6--|
--L--4-----4-----4--4--4--|-----4-----4--4--2--L--4--|


  E  E  E  E  E  E  E  E     E  E  E  E  E  E  E  E   
--------------------------|--------------------------|
--------------------------|--------------------------|
--------------------------|--------------------------|
--------------------------|--------------------------|
--L-----5-----2-----------|--5-----2--------4--L--6--|
--L--4-----4-----4--4--4--|-----4-----4--4--2--L--4--|


  E  E  E  E  E  E  E  E     E  E  E  E  E  E  E  E   
--------------------------|--------------------------|
--------------------------|--------------------------|
--------------------------|--------------------------|
--------------------------|--------------------------|
--L-----5-----2-----------|--5-----2--------4--L--6--|
--L--4-----4-----4--4--4--|-----4-----4--4--2--L--4--|


  E  E  E  E  E  E  E  E     E  E.  S E.  S E.  S E   
--------------------------|--------------------------|
--------------------------|--------------------------|
--------------------------|--------------------------|
--------------------------|--------------------------|
--L-----5-----2-----------|--5--4-----4-----5-----6--|
--L--4-----4-----4--4--4--|-----2-----2-----3-----4--|


  E  E  E  E  E  E  E  E     E  E  E  E  E  E  E  E   
--------------------------|--------------------------|
--------------------------|--------------------------|
--------------------------|--------------------------|
--------------------------|--------------------------|
--L-----5-----2-----------|--5-----2--------4--L--6--|
--L--4-----4-----4--4--4--|-----4-----4--4--2--L--4--|


  E  E  E  E  E  E  E  E     E  E    E   E   E   E   E   E    
--------------------------|-----4S--16--16--16--16--16--16s--|
--------------------------|----------------------------------|
--------------------------|----------------------------------|
--------------------------|----------------------------------|
--L-----5-----2-----------|--5-------------------------------|
--L--4-----4-----4--4--4--|----------------------------------|


  S S E  E  E  E  E  E  E     E  E  E  E  E  E  E  E   
--L-4----------------------|--------------------------|
---------------------------|--------------------------|
---------------------------|--------------------------|
---------------------------|--------------------------|
---------5-----2-----------|--5-----2--------4--L--6--|
------4-----4-----4--4--4--|-----4-----4--4--2--L--4--|


  E  E  E  E  E  E  E  E     E  E.  S E.  S E.  S E     W                 
--------------------------|--------------------------|-------------------|
--------------------------|--------------------------|-------------------|
--------------------------|--------------------------|-------------------|
--------------------------|--------------------------|-------------------|
--L-----5-----2-----------|--5--4-----4-----5-----6--|-------------------|
--L--4-----4-----4--4--4--|-----2-----2-----3-----4--|-------------------|




  E  E  E  E  E  E  E  E     E  E  E  E  E  E  E  E     W                 
--------------------------|--------------------------|-------------------|
--------------------------|--------------------------|-------------------|
--------------------------|--------------------------|--4----------------|
--L--4--4--4--4--4--4--4--|--4--4--4--4--4--4--4--4--|--x----------------|
--L--4--4--4--4--4--4--4--|--4--4--4--4--4--4--4--4--|--2----------------|
--L--2--2--2--2--2--2--2--|--2--2--2--2--2--2--2--2--|-------------------|


  W                   W                   W                   W                 
-------------------|-------------------|-------------------|-------------------|
-------------------|-------------------|-------------------|-------------------|
--L----------------|-------------------|-------------------|-------------------|
-------------------|--5----------------|--L----------------|--2----------------|
--L----------------|--x----------------|-------------------|--x----------------|
-------------------|--3----------------|--L----------------|--0----------------|


  W                   W                   W                   W                 
-------------------|-------------------|-------------------|-------------------|
-------------------|-------------------|-------------------|-------------------|
-------------------|-------------------|-------------------|--4----------------|
--L----------------|--5----------------|--4----------------|--x----------------|
-------------------|--x----------------|--x----------------|--2----------------|
--L----------------|--3----------------|--2----------------|-------------------|


  H        H           W                   H        H         
--------------------|-------------------|--------------------|
--------------------|-------------------|--------------------|
--6--------7--------|--4----------------|--6--------7--------|
--x--------x--------|--x----------------|--x--------x--------|
--4--------5--------|--2----------------|--4--------5--------|
--------------------|-------------------|--------------------|


  W                    H         H            W                 
-------------------|----------------------|--------------------|
-------------------|----------------------|--------------------|
--9----------------|--11--------12--------|--16----------------|
--x----------------|---x---------x--------|---x----------------|
--7----------------|---9--------10--------|--14----------------|
-------------------|----------------------|--------------------|


   H.           E  E     E  E  E  E  E  E  E  E     E  E  E  E  E  E  E  E   
----------------------|--------------------------|--------------------------|
----------------------|--------------------------|--------------------------|
--15------------L-----|--------------------------|--------------------------|
---x------------------|--------------------------|--------------------------|
--13------------L--6--|--L-----5-----2-----------|--5-----2--------4--L--6--|
-------------------4--|--L--4-----4-----4--4--4--|-----4-----4--4--2--L--4--|


  E  E  E  E  E  E  E  E     E  E  E  E  E  E  E  E   
--------------------------|--------------------------|
--------------------------|--------------------------|
--------------------------|--------------------------|
--------------------------|--------------------------|
--L-----5-----2-----------|--5-----2--------4--L--6--|
--L--4-----4-----4--4--4--|-----4-----4--4--2--L--4--|


  E  E  E  E  E  E  E  E     E  E  E  E  E  E  E  E   
--------------------------|--------------------------|
--------------------------|--------------------------|
--------------------------|--------------------------|
--------------------------|--------------------------|
--L-----5-----2-----------|--5--4--2--------4--L--6--|
--L--4-----4-----4--4--4--|-----------4--3--2--L--4--|


  E  E  E  E  E  E  E  E     E  Q    H        E     E  E  E  E  E  E  E  E   
--------------------------|----------------------|--------------------------|
--------------------------|----------------------|--------------------------|
--------------------------|----------------------|--------------------------|
--------------------------|----------------------|--------------------------|
--L-----5-----2-----------|-------------------6--|-------5-----2-----------|
--L--4-----4-----4--4--4--|-------------------4--|----4-----4-----4--4--4--|


  E  E  E  E  E  E  E  E     E  E  E  E  E  E  E  E   
--------------------------|--------------------------|
--------------------------|--------------------------|
-------------------------|--------------------------|
-------------------------|--------------------------|
--5-----2--------4----6--|-------5-----2-----------|
-----4-----4--4--2----4--|----4-----4-----4--4--4--|


  E  E  E  E  E  E  E  E     E  E  E  E  E  E  E  E   
--------------------------|--------------------------|
--------------------------|--------------------------|
--------------------------|--------------------------|
--------------------------|--------------------------|
--5-----2--------4----6--|-------5-----2-----------|
-----4-----4--4--2----4--|----4-----4-----4--4--4--|


  E  E  E  E  E  E  E  E     E  E  E  E  E  E  E  E   
--------------------------|--------------------------|
--------------------------|--------------------------|
--------------------------|--------------------------|
--------------------------|--------------------------|
--5-----2--------4----6--|-------5-----2-----------|
-----4-----4--4--2----4--|----4-----4-----4--4--4--|


  E  E.  S E.  S E.  S E     E  E  E  E  E  E  E  E   
--------------------------|--------------------------|
--------------------------|--------------------------|
--------------------------|--------------------------|
-----4-----4-----5--------|--------------------------|
--5--4-----4-----5-----6--|--L-----5-----2-----------|
-----2-----2-----3-----4--|--L--4-----4-----4--4--4--|


  E  E  E  E  E  E  E  E     E  E  E  E  E  E  E  E    
--------------------------|---------------------------|
--------------------------|---------------------------|
--------------------------|---------------------------|
--------------------------|---------------------------|
--5-----2--------4--L--6--|--L-----5-----2------------|
-----4-----4--4--2--L--4--|--L--4-----4-----4--4--4s--|


                                                                         
   E.   S   S  S  S   S  S  S   S  S  E     E      E  E  E  E  E  E  E  E   
------------------------------------------------|--------------------------|
------------------------------------------------|--------------------------|
------------------------------------------------|--------------------------|
-------12p-11p-9--------------------------------|--------------------------|
-----------------12p-11p-9---------------11~--|-------5-----2--------------|
--10-----------------------12p-10p-9-10---------|-----4-----4-----4--4--4--|


  E  E  E  E  E  E  E  E     E  E  E  E  E  E  E  E   
--------------------------|--------------------------|
--------------------------|--------------------------|
--------------------------|--------------------------|
--------------------------|--------------------------|
--5-----2--------4--L--6--|--L-----5-----2-----------|
-----4-----4--4--2--L--4--|--L--4-----4-----4--4--4--|


                                                                        
  E  E.  S E.  S E.  S E      Q    E  E  E           W                 
---------------------------|------------------------|-------------------|
---------------------------|------------------------|-------------------|
---------------------------|----------------16------|--4----------------|
-----4-----4-----5-----6s--|--x---------------------|--x----------------|
--5--4-----4-----5-----6s--|--x---------------------|--2----------------|
-----2-----2-----3-----4s--|--x---------------------|-------------------|


  W                   W                   W                   W                 
-------------------|-------------------|-------------------|-------------------|
-------------------|-------------------|-------------------|-------------------|
--L----------------|-------------------|-------------------|-------------------|
-------------------|--5----------------|--L----------------|--2----------------|
--L----------------|--x----------------|-------------------|--x----------------|
-------------------|--3----------------|--L----------------|--0----------------|


  W                   W                   W                   W                 
-------------------|-------------------|-------------------|-------------------|
-------------------|-------------------|-------------------|-------------------|
-------------------|-------------------|-------------------|--4----------------|
--L----------------|--5----------------|--4----------------|--x----------------|
-------------------|--x----------------|--x----------------|--2----------------|
--L----------------|--3----------------|--2----------------|-------------------|


  H        H           W                   H        H         
--------------------|-------------------|--------------------|
--------------------|-------------------|--------------------|
--6--------7--------|--4----------------|--6--------7--------|
--x--------x--------|--x----------------|--x--------x--------|
--4--------5--------|--2----------------|--4--------5--------|
--------------------|-------------------|--------------------|


  W                    H         H            W                 
-------------------|----------------------|--------------------|
-------------------|----------------------|--------------------|
--9----------------|--11--------12--------|--16----------------|
--x----------------|---x---------x--------|---x----------------|
--7----------------|---9--------10--------|--14----------------|
-------------------|----------------------|--------------------|


   W                   W                   W                 
--------------------|-------------------|-------------------|
--------------------|-------------------|-------------------|
--15----------------|--4----------------|--L----------------|
---x----------------|--x----------------|-------------------|
--13----------------|--2----------------|--L----------------|
--------------------|-------------------|-------------------|


  W                   W                   W                   W                 
-------------------|-------------------|-------------------|-------------------|
-------------------|-------------------|-------------------|-------------------|
-------------------|-------------------|-------------------|-------------------|
--5----------------|--L----------------|--2----------------|--L----------------|
--x----------------|-------------------|--x----------------|-------------------|
--3----------------|--L----------------|--0----------------|--L----------------|


  W                   W                   W                 
-------------------|-------------------|-------------------|
-------------------|-------------------|-------------------|
-------------------|-------------------|--4----------------|
--5----------------|--4----------------|--x----------------|
--x----------------|--x----------------|--2----------------|
--3----------------|--2----------------|-------------------|


  H        H           W                   H        H         
--------------------|-------------------|--------------------|
--------------------|-------------------|--------------------|
--6--------7--------|--4----------------|--6--------7--------|
--x--------x--------|--x----------------|--x--------x--------|
--4--------5--------|--2----------------|--4--------5--------|
--------------------|-------------------|--------------------|


  W                    H         H            W                 
-------------------|----------------------|--------------------|
-------------------|----------------------|--------------------|
--9----------------|--11--------12--------|--16----------------|
--x----------------|---x---------x--------|---x----------------|
--7----------------|---9--------10--------|--14----------------|
-------------------|----------------------|--------------------|


   W                   W                   W                 
--------------------|-------------------|-------------------|
--------------------|-------------------|-------------------|
--15----------------|--4----------------|--L----------------|
---x----------------|--x----------------|-------------------|
--13----------------|--2----------------|--L----------------|
--------------------|-------------------|-------------------|


  W                   W                   W                   W                 
-------------------|-------------------|-------------------|-------------------|
-------------------|-------------------|-------------------|-------------------|
-------------------|-------------------|-------------------|-------------------|
--5----------------|--L----------------|--2----------------|--L----------------|
--x----------------|-------------------|--x----------------|-------------------|
--3----------------|--L----------------|--0----------------|--L----------------|


  W                   W                   W                 
-------------------|-------------------|-------------------|
-------------------|-------------------|-------------------|
-------------------|-------------------|--4----------------|
--5----------------|--4----------------|--x----------------|
--x----------------|--x----------------|--2----------------|
--3----------------|--2----------------|-------------------|


  H        H           W                   H        H         
--------------------|-------------------|--------------------|
--------------------|-------------------|--------------------|
--6--------7--------|--4----------------|--6--------7--------|
--x--------x--------|--x----------------|--x--------x--------|
--4--------5--------|--2----------------|--4--------5--------|
--------------------|-------------------|--------------------|


  W                    H         H            W                 
-------------------|----------------------|--------------------|
-------------------|----------------------|--------------------|
--9----------------|--11--------12--------|--16----------------|
--x----------------|---x---------x--------|---x----------------|
--7----------------|---9--------10--------|--14----------------|
-------------------|----------------------|--------------------|


   W                   W                   H        H         
--------------------|-------------------|--------------------|
--------------------|-------------------|--------------------|
--15----------------|--4----------------|--6--------7--------|
---x----------------|--x----------------|--x--------x--------|
--13----------------|--2----------------|--4--------5--------|
--------------------|-------------------|--------------------|


  W                   H        H           W                 
-------------------|--------------------|-------------------|
-------------------|--------------------|-------------------|
--4----------------|--6--------7--------|--9----------------|
--x----------------|--x--------x--------|--x----------------|
--2----------------|--4--------5--------|--7----------------|
-------------------|--------------------|-------------------|


   H         H            W                    W                 
----------------------|--------------------|--------------------|
----------------------|--------------------|--------------------|
--11--------12--------|--16----------------|--15----------------|
---x---------x--------|---x----------------|---x----------------|
---9--------10--------|--14----------------|--13----------------|
----------------------|--------------------|--------------------|
            
Submit corrections


        Milk Lizard lessons Hard to play? Try these video lessons and learn fast Milk Lizard lessons
        
↑ Back to top | Tablatures and chords for acoustic guitar and electric guitar, ukulele, drums are parodies/interpretations of the original songs. You may use it for private study, scholarship, research or language learning purposes only