Home » D » Difranco Ani »

Difranco Ani - Gratitude Tabs

Artists:  A B C D E F G H I J K L M N O P Q R S T U V W X Y Z # 

Gratitude Tabs

(ver. 2) Click to play this song!
Difranco Ani
Gratitude -- by Ani Difranco
---------    ---------------
(from the album Not So Soft (1991)
-- for ordering info see her web page:

Standard tuning -- no capo

Disclaimer -- same as before; this is very approximate. Ani 
plays it much better somehow.  In particular, she seems to 
be able to slide between one chord and another, which must 
mean she's playing all these with some sort of bar chords?  
I don't know.

Main part -- play twice as intro and keep repeating 
thereafter.  She does slight variations occasionally on 
these (e.g. play Chord1 twice and skip chord2 sounds pretty 
cool.  Also strum across the chords instead of picking.)  I 
don't know "letter names" for these chords, so I just 
numbered them, though it starts outwith an ordinary D:

Chord 1:D       Chord 2(000230) Chord 3(320030)
--2--------2---|0--------0-----|---------------|
--3------------|---------------|3--------3-----|
-----2--------2|---2--------2--|0--------------|
--0-----2------|---------------|---0--------0--|
---------------|0-----0--------|---------------|
---------------|---------------|3-----3--------|

Chord4 (020020)
---------------|--Repeat Chord3 --| --Repeat Chord2 --|
2--------2-----|-- Same Pattern --| ---Same Pattern --|
0--------------|------------------| ------------------|
---0--------0--|------------------| ------------------|
2-----2--------|------------------| ------------------|
---------------|------------------| ------------------|

--Repeat Chord1 --|
---Same Pattern --|
------------------|
------------------|
------------------|
------------------|



Chorus ("But you changed the rules..."):

Chord4 (020020)  Chord5 (020030)
---------------|---------------|
2--------2-----|2--------2-----|
0--------------|0--------------|
---0--------0--|---0--------0--|
2-----2--------|2-----2--------|
---------------|---------------|

--Repeat Chord5 --|--Hold Chord4---
---Same Pattern --|--One bar ------
------------------|----------------
------------------|----------------
------------------|----------------
------------------|----------------

If you can't figure this out, mail me at
            
Submit corrections

↑ Back to top | Tablatures and chords for acoustic guitar and electric guitar, ukulele, drums are parodies/interpretations of the original songs. You may use it for private study, scholarship, research or language learning purposes only