Home » D » Die Sterne »

Die Sterne - Fickt Das System Tabs

Artists:  A B C D E F G H I J K L M N O P Q R S T U V W X Y Z # 

Fickt Das System Tabs

(ver. 1) Click to play this song!
Die Sterne


b: Bend

Riff

e--------------------|
B---10-8-8-8-8-------|
G-------9-9---9------| x3
D--7-----------10b-7-|
A--------------------|
E--------------------|

e--------------------|
B---10-8-8-8-8-8/10--|
G-------9-9----------|
D--7-----------------|
A--------------------|
E--------------------|

Chords:

Am F G

Solo = Riff (slow)
            
Submit corrections

↑ Back to top | Tablatures and chords for acoustic guitar and electric guitar, ukulele, drums are parodies/interpretations of the original songs. You may use it for private study, scholarship, research or language learning purposes only