» » »

Dierks Bentley - With The Band () Tabs

Artists:  A B C D E F G H I J K L M N O P Q R S T U V W X Y Z # 

With The Band () Tabs

(ver. 1) Click to play this song!
Dierks Bentley
 Rating:
4/5 (4 votes)

 With The Band () lessons Tabs too difficult? Try these video lessons and learn fast
 
                E--------------3---------3---------3
B--------------3---------3---------3
G--------------0---------0---------0  
D--------------x---------0---------x   
A----1-1p0-1p0-3-3p1-3p1-x-1p0-1p0-3
E-0-3--------------------3----------

E-3---------3---------3---------3
B-3---------3---------3---------3
G-0---------0---------0---------0
D-0---------x---------0---------x
A-x-1p0-1p0-3-3p1-3p1-x-1p0-1p0-3
E-3-------------------3----------
            
Submit corrections


        With The Band () lessons Hard to play? Try these video lessons and learn fast With The Band () lessons
        
↑ Back to top | Tablatures and chords for acoustic guitar and electric guitar, ukulele, drums are parodies/interpretations of the original songs. You may use it for private study, scholarship, research or language learning purposes only