Home » D » Dierks Bentley »

Dierks Bentley - Lot Of Leavin Left To Do Tabs

Artists:  A B C D E F G H I J K L M N O P Q R S T U V W X Y Z # 

Lot Of Leavin Left To Do Tabs

(ver. 1) Click to play this song!
Dierks Bentley
this is just a little lead for the 
intro.....nothing special....
THANK WILDCARD76 FOR THE ADVICE


capo 2

E------------------------------
B-----------------------------
G-----2-2-2-2---2-2-2-2-------
D-----2-2-2-2---2-2-2-2-------
A----(0)-------(0)------------
E-----------------------------



---------------------------------
---------------------------------
-2h4--2--0-----------------------
--------------4--2--0------------
---------------------------------
---------------------------------
            
Submit corrections

↑ Back to top | Tablatures and chords for acoustic guitar and electric guitar, ukulele, drums are parodies/interpretations of the original songs. You may use it for private study, scholarship, research or language learning purposes only