» » »

Dierks Bentley - Every Mile A Memory (no Capo W/ Tabbed Riffs) Tabs

Artists:  A B C D E F G H I J K L M N O P Q R S T U V W X Y Z # 

Every Mile A Memory (no Capo W/ Tabbed Riffs) Tabs

(ver. 1) Click to play this song!
Dierks Bentley
 Rating:
4/5 (4 votes)

 Every Mile A Memory (no Capo W/ Tabbed Riffs) lessons Tabs too difficult? Try these video lessons and learn fast
 
                EVERY MILE A MEMORY (no capo chord chart w/ tabbed lead riffs)

Intro:  	  [A]  	  [D] (4X)
e|---------------2--------------------
B|-------2-------3----------2---------
G|-------2-------2----------2---------
D|-------2--5-4--0----------2---------
A|-------0----------5-4-5-4-0---------
E|------------------------------------

Verse 1:
        [A]        [D]  	            [A]  	    	  [D]
Country roads, old theater marquee signs
        [A]        [D]  	    	    [A]  	    	  [D]
Parking lots and billboards flying by
        [F#m]                    [D]
Spanish moss, little hick-town squares 

(Riff 1) (V1- 0:44) (V2- 1:48)
e|---------------------------------------5-------------
B|--------------------------2h3------2h3---------------
G|--------2------2--------2--------2-------------------
D|----4-6-------4-2-----5------------------------------
A|---------4--------5------------5---------------------
E|-----------------------------------------------------
     [G]                                [D]
Wild roses on the riverbank, girl it's almost like you're there aww……

Chorus:
[A]                    [E]
Every mile a memory, every song another scene
     [Bm]                   [D]
[A]                             [E]
Every day a page turned down, every night a lonesome sound
[Bm]     [C#m]   	    	       [D]
Like a freight train rolling through my dreams.  Every mile a memory

Repeat Intro:

Verse 2:
 [A]   	    	    	  [D]  	      [A]  	    	  [D]
Red sundown, out across the western sky
         [A]   	  [D]  	    	     [A]  	    	  [D]
Takes me back, to the fire in your eyes
      [F#m]                 [D]
Texas stars, in a purple night
    [G]                                [D]                   
Not seeing 'em with you baby, oh they never do look right. No

Repeat Chorus:

Bridge:
(Riff 2) (Bridge- 2:22) (Bridge- 2:33)
e|--------------------3----------
B|----2-3-5-3-2-------3----------
G|----------------4-2-0----------
D|--------------------0----------
A|--------------------2----------
E|--------------------3----------
[G]            [D]              [A]     	  [D]
Funny how no matter where I run
[G]                  [D]        [Bm]       [C#m]   [D]
Round every bend I only see just how far I haven't come
Repeat Chorus: (acoustic/electric only)

(Riff 3) (Down chorus- 2:50)(this isn't the exact way, but close enough I think to get you in the ball park)
e|----12----14-12----12---14-12----10-12-12-10-12----------
B|-------12-------12---12-------12----------------(10)-----
G|---------------------------------------------------------
D|---------------------------------------------------------
A|---------------------------------------------------------
E|---------------------------------------------------------

Tag ending:
                   [A]   	  [D]
Every mile a memory
                   [A]   	  [D]
Every mile a memory
                   [A]   	  [D]
Every mile a memory

 
            
Submit corrections


        Every Mile A Memory (no Capo W/ Tabbed Riffs) lessons Hard to play? Try these video lessons and learn fast Every Mile A Memory (no Capo W/ Tabbed Riffs) lessons
        
↑ Back to top | Tablatures and chords for acoustic guitar and electric guitar, ukulele, drums are parodies/interpretations of the original songs. You may use it for private study, scholarship, research or language learning purposes only