Home » D » Die Aerzte »

Die Aerzte - Junge Tabs

Artists:  A B C D E F G H I J K L M N O P Q R S T U V W X Y Z # 

Junge Tabs

(ver. 3) Click to play this song!
Die Aerzte
-------------------------------------------------------------------------------
                             Junge - Die Ärzte
-------------------------------------------------------------------------------
info: its my first tab ;) (feel free to criticize me in a constructive way)

Tuning: Standart
| /  slide up
| \  slide down
| h  hammer-on
| p  pull-off
| ~  vibrato
| +  harmonic
| x  Mute note
===============================================================================
Chords Used:

       F#    G#   a#     C#    D#    h     F
e|-----2-----4-----1-----4-----6-----6-----1---------------------------|
B|-----2-----4-----2-----6-----7-----6-----1---------------------------|
G|-----3-----5-----3-----6-----8-----6-----2---------------------------|
D|-----4-----6-----3-----6-----8-----8-----3---------------------------|
A|-----4-----6-----1-----4-----6-----8-----3---------------------------|
E|-----2-----4-----1-----4-----6-----6-----1---------------------------|


Lyrics
Intro:
F#  G#  a#
F#  G#  a#

Riff 1
e|----------------------------|  
B|--11-9----------------------|
G|-------10-------------------|
D|----------11-13-15h16p15~---|
A|----------------------------|
E|----------------------------|

Riff 2
e|----------------------------|  (something like that, try it)
B|---11-13-14-----------------|
G|-------------18-13-15h16p15~|
D|----------------------------|
A|----------------------------|
E|----------------------------|

Strophe:
F#    G#                    a#
Junge, warum hast du nichts gelernt?
             F#                              G#
Guck dir den Dieter an(...den Dieter an, den Dieter an)
                  a#     F
der hat sogar ein Auto.
      F#                                    G#
Warum gehst du nicht zu Onkel Werner in die Werkstatt?
                 a#
Der gibt dir ‘ne Festanstellung, wenn du ihn darum bittest.

ref:
F#    G#                    F#
Junge  -  und wie du wieder aussiehst!
              D#                      a# oder h
Löcher in der Hose und ständig dieser Lärm.
               C#
Was sollen die Nachbarn sagen?
                    F#                       D#
Und dann noch deine Haare, da fehlen mir die Worte.
                  a# oder h
Musst du die denn färben?
               C#
Was sollen die Nachbarn sagen?
                   F#                           D#
Nie kommst du nach Hause, wir wissen nicht mehr weiter.

strophe:
Junge, brich deiner Mutter nicht das Herz.
Es ist noch nicht zu spät, dich an der Uni einzuschreiben.
Du hast dich doch früher so für Tiere interessiert,
Wäre das nichts für dich?
Eine eigene Praxis!

ref:
Junge - und wie du wieder aussiehst!
Löcher in der Nase und ständig dieser Lärm!
Was sollen die Nachbaren sagen?
Elektrische Gitarren und immer diese Texte,
Das will doch keiner hören!
Was sollen die Nachbaren sagen?
Nie kommst du nach Hause, so viel schlechter Umgang!
Wir werden dich enterben!
Was soll das Finanzamt sagen?
Wo soll das alles enden?
Wir machen uns doch Sorgen!

bridge:
Und du warst so ein süßes Kind.
Und du warst so ein süßes Kind.
Und du warst so ein süßes Kind.
Du warst so süß.

ref:
Und immer deine Freunde - ihr nehmt doch alle Drogen!
Und ständig dieser Lärm!
Was sollen die Nachbarn sagen?
Denk an deine Zukunft, denk an deine Eltern.
Willst du, daß wir sterben?

made by Joshuaw © 2007.
            
Submit corrections

↑ Back to top | Tablatures and chords for acoustic guitar and electric guitar, ukulele, drums are parodies/interpretations of the original songs. You may use it for private study, scholarship, research or language learning purposes only