Home » D » Diamond Head »

Diamond Head - Dead Reckoning Tabs

Artists:  A B C D E F G H I J K L M N O P Q R S T U V W X Y Z # 

Dead Reckoning Tabs

(ver. 1) Click to play this song!
Diamond Head
 Rating:
4.3/5 (6 votes)
                -------------------------------------------------------------------------------
-------------------------------------------------------------------------------
Band: Diamond Head


Tuning: Standard

Riff 1 (intro)
e|------------------------|x16
B|------------------------|
G|--------7--------6~~----|
D|--0--5-----0--5---------|
A|------------------------|
E|------------------------|


Riff 2
e|--------------------------------------------|x4
B|--------------------------------------------|
G|--------------2-------2----4~---------------|
D|--------------2-------2----4~-----2--4------|
A|--2--4--4--4-------0--------------------0---|
E|--0--2--2--2--------------------------------|


Riff 3 (verse 1)
e|----------------------------------------------------|x7
B|----------------------------------------------------|
G|----------------------------------------------------|
D|-----------------------------------------2--4-------|
A|--2--4--4--4--4--4--4--4--4--4--4--4--4--------0----|
E|--0--2--2--2--2--2--2--2--2--2--2--2--2-------------|

e|---------------------------------------------------|
B|---------------------------------------------------|
G|---------------------------------------------------|
D|---------------------------------------------------|
A|--5--5--5--5--5--5--5--5--2--2--2--2--2--2--2--2---|
E|--3--3--3--3--3--3--3--3--0--0--0--0--0--0--0--0---|


Riff 4 (not sure about this riff)
e|----------------------------------------------------|x3
B|----------------------------------------------------|
G|---------------------------------------4-2-----2-4--|
D|--------------4-2-----2-4--4---------------4-2------|
A|--4---------------4-2------2--2--2--2---------------|
E|--2--2--2--2----------------------------------------|

e|--------------------------------------------------|
B|--------------------------------------------------|
G|---------------------------------------4--2-------|
D|--------------4-2-----2-4--4-----------------0----|
A|--4---------------4-2------2--2--2--2-------------|
E|--2--2--2--2--------------------------------------|


Riff 2 (chorus)
e|--------------------------------------------|x4
B|--------------------------------------------|
G|--------------2-------2----4~---------------|
D|--------------2-------2----4~-----2--4------|
A|--2--4--4--4-------0--------------------0---|
E|--0--2--2--2--------------------------------|


Riff 3 (verse 2)
e|----------------------------------------------------|x7
B|----------------------------------------------------|
G|----------------------------------------------------|
D|-----------------------------------------2--4-------|
A|--2--4--4--4--4--4--4--4--4--4--4--4--4--------0----|
E|--0--2--2--2--2--2--2--2--2--2--2--2--2-------------|

e|---------------------------------------------------|
B|---------------------------------------------------|
G|---------------------------------------------------|
D|---------------------------------------------------|
A|--5--5--5--5--5--5--5--5--2--2--2--2--2--2--2--2---|
E|--3--3--3--3--3--3--3--3--0--0--0--0--0--0--0--0---|


Riff 4
e|--------------------------------------------------|x3
B|--------------------------------------------------|
G|------------------------------------4-2-----2-4---|
D|--------------4-2-----2-4--4------------4-2-------|
A|--4---------------4-2------2--2--2----------------|
E|--2--2--2--2--------------------------------------|

e|--------------------------------------------------|
B|--------------------------------------------------|
G|------------------------------------4--2----------|
D|--------------4-2-----2-4--4--------------0-------|
A|--4---------------4-2------2--2--2----------------|
E|--2--2--2--2--------------------------------------|


Riff 2 (chorus)
e|--------------------------------------------|x4
B|--------------------------------------------|
G|--------------2-------2----4~---------------|
D|--------------2-------2----4~-----2--4------|
A|--2--4--4--4-------0--------------------0---|
E|--0--2--2--2--------------------------------|


Riff 5 (interlude)
e|-------------------------------------------------------------|x5
B|-------------------------------------------------------------|
G|-------------------------------------------------------------|
D|-------------------------------------------------------------|
A|--4--------4-----4-----4----------4--------4-----4-----4-----|
E|--2--------2-----2-----2----------2--------2-----2-----2-----|


Riff 4
e|--------------------------------------------------|x3
B|--------------------------------------------------|
G|------------------------------------4-2-----2-4---|
D|--------------4-2-----2-4--4------------4-2-------|
A|--4---------------4-2------2--2--2----------------|
E|--2--2--2--2--------------------------------------|

e|--------------------------------------------------|
B|--------------------------------------------------|
G|------------------------------------4--2----------|
D|--------------4-2-----2-4--4--------------0-------|
A|--4---------------4-2------2--2--2----------------|
E|--2--2--2--2--------------------------------------|


Riff 2 (chorus)
e|--------------------------------------------|x8
B|--------------------------------------------|
G|--------------2-------2----4~---------------|
D|--------------2-------2----4~-----2--4------|
A|--2--4--4--4-------0--------------------0---|
E|--0--2--2--2--------------------------------|


Riff 6 (outro)
e|---------------------------------------------------------------------------|
B|---------------------------------------------------------------------------|
G|--------------2-----2--4----4----------------------------------------------|
D|--------------2-----2--4----4-----4---4---4\-------------------------------|
A|--2--4--4--4-----0----------------4---4---4\-------------------------------|
E|--0--2--2--2----------------------2---2---2\-------------------------------|


| /  slide up
| \  slide down
| h  hammer-on
| p  pull-off
| ~  vibrato
| +  harmonic
| x  Mute note
===============================================================================
            
Submit corrections

↑ Back to top | Tablatures and chords for acoustic guitar and electric guitar, ukulele, drums are parodies/interpretations of the original songs. You may use it for private study, scholarship, research or language learning purposes only