Home » D » Diamond Head »

Diamond Head - Streets Of Gold Tabs

Artists:  A B C D E F G H I J K L M N O P Q R S T U V W X Y Z # 

Streets Of Gold Tabs

(ver. 1) Click to play this song!
Diamond Head
 Rating:
4.2/5 (5 votes)
                ----------------------------------------------------------------------------
----------------------------------------------------------------------------



This was tabbed totally by ear so if you think there's anything weird about
thoughts or suggestions. Lemme know what you think!

*** In the intro, I also put the note which you can kinda hear resonate in 
brackets "()", cause sometimes I wasn't sure which note hit. This doesn't 
mean you have to hit both notes. Think of it as one or the other, whichever
you find sounds best. ***

----------------------------------------------------------------------------

Here's the intro, it repeats itself throughout most of the song: 
                       
|-----------------------------------------------------|
|-----------------------------------------------------|
|-----------------------------------------------------|
|---------4--------4--------4--------2---(4)----------|Repeat x7
|-----------------------------------------4--2--4-----|
|-----2------2--2-----2--2-----2--2-------------------|


|--------------------------------------(12)-----------|
|-----------------------------------------------------|
|-----------------------------------------------------|
|---------4--------4--------4------------2------------|
|-----------------------------------------------------|
|-----2------2--2-----2--2-----2--2-------------------|

And then Again ...
|-----------------------------------------------------|
|-----------------------------------------------------|
|-----------------------------------------------------|
|---------4--------4--------4--------2---(4)----------|Repeat x8
|-----------------------------------------4--2--4-----|
|-----2------2--2-----2--2-----2--2-------------------|

----------------------------------------------------------------------------

Then there's the 2nd part:

|-----------------------------------------------------|
|-----------------------------------------------------|
|-------------------7---7------------------7----7-----|
|-----4--4--4--4----7---7----4--4--4--4----7----7-----| Repeat x2
|-----4--4--4--4----5---5----4--4--4--4----5----5-----|
|-----2--2--2--2-------------2--2--2--2---------------|


|-----------------------------------------------------|
|-----------------------------------------------------|
|---------4----------------9--------------------------|
|---------4-------4--------9-------7-------4----------|
|---------2-------4--------7-------7-------4----------|
|-----------------2----------------5-------2----------|

----------------------------------------------------------------------------

And the 3rd:

|-----------------------------------------------------|
|-----------------------------------------------------|
|-----------------------------------------------------|
|--------4--2-----2-------------4--2-----2------------| 
|--------------4-----2--4-------------4-----2--4------|
|-----2----------------------2------------------------|

|-----------------------------------------------------|
|-----------------------------------------------------|
|-----------------------------------------------------|
|--------4--2-----2-----------------------------------| Repeat x2
|--------------4-----2--4-------2--4-----2--4---------|
|-----2----------------------5--------5---------5-----|


----------------------------------------------------------------------------

Then Solo ... :P

----------------------------------------------------------------------------

The rest basically repeats itself throughout the whole song! 

And that's about it! Hope you enjoy it!

  Erik
            
Submit corrections

↑ Back to top | Tablatures and chords for acoustic guitar and electric guitar, ukulele, drums are parodies/interpretations of the original songs. You may use it for private study, scholarship, research or language learning purposes only