Home » D » Diamond Head »

Diamond Head - Borrowed Time Tabs

Artists:  A B C D E F G H I J K L M N O P Q R S T U V W X Y Z # 

Borrowed Time Tabs

(ver. 1) Click to play this song!
Diamond Head
[Intro]
 
e|-----------7----------------|--------5--------6----------|--------7-------------------|
B|--------------8-------------|-----------6--------6-------|-----------8----------------|
G|-----------------7----------|--------------5-------------|--------------7-------------|
D|----------------------------|----------------------------|----------------------------|
A|----------------------------|----------------------------|----------------------------|
E|----------------------------|----------------------------|----------------------------|
 
e|-----5--------6-------------|-----7----------------------|--5--------6----------------|
B|--------6--------6----------|--------8-------------------|-----6--------6-------------|
G|-----------5----------------|-----------7----------------|--------5-------------------|
D|----------------------------|----------------------------|----------------------------|
A|----------------------------|----------------------------|----------------------------|
E|----------------------------|----------------------------|----------------------------|
 
e|--7--------------------5----|--------6-------------------|-------|
B|-----8----------------------|--6--------6L----------6L---|--6----|
G|--------7-------------------|-----5----------------------|-------|
D|----------------------------|----------------------------|-------|
A|----------------------------|----------------------------|-------|
E|----------------------------|----------------------------|-------|
 
e|----|----|----|----|
B|----|----|----|----|
G|----|----|----|----|
D|----|----|----|----|
A|----|----|----|----|
E|----|----|----|----|
 
 
[Intro 2]
     PM--------|
e|--------------3L------------|--3--7----------------------|
B|--------------3L------------|--3--------8----------------|
G|----------------------------|--------------7-------------|
D|----------------------------|----------------------------|
A|----------------------------|----------------------------|
E|--0--0--0--0----------------|----------------------------|
 
     PM--------|
e|--------------1L------------|--1--5----------------------|
B|--------------1L------------|--1--------6----------------|
G|----------------------------|--------------5-------------|
D|----------------------------|----------------------------| x5
A|--0--0--0--0----------------|----------------------------|
E|----------------------------|----------------------------|
 
 
[Verse 1]
     PM--------|
e|--------------3L------------|--3--7----------------------|
B|--------------3L------------|--3--------8----------------|
G|----------------------------|--------------7-------------|
D|----------------------------|----------------------------|
A|----------------------------|----------------------------|
E|--0--0--0--0----------------|----------------------------|
 
     PM--------|
e|--------------1L------------|--1--5----------------------|
B|--------------1L------------|--1--------6----------------|
G|----------------------------|--------------5-------------|
D|----------------------------|----------------------------| x4
A|--0--0--0--0----------------|----------------------------|
E|----------------------------|----------------------------|
 
 
[Chorus]
     PM-------------------------------------------------|
e|----------------------------|----------------------------|
B|----------------------------|----------------------------|
G|----------------------------|----------------------------|
D|----------------------------|----------------------------|
A|--2--------2--------2-------|--3--------3--------3-------|
E|-----3--0-----3--0-----3----|-----3--0-----3--0-----3----|
 
     PM-------------------------------------------------|
e|----------------------------|----------------------------|
B|----------------------------|----------------------------|
G|----------------------------|----------------------------|
D|----------------------------|----------------------------|
A|--4--------4--------4-------|--5--------5--------5-------|
E|-----3--0-----3--0-----3----|-----3--0-----3--0-----3----|
 
     PM-------------------------------------------------|
e|----------------------------|----------------------------|
B|----------------------------|----------------------------|
G|----------------------------|----------------------------|
D|----------------------------|----------------------------|
A|--2--------2--------2-------|--3--------3--------3-------|
E|-----3--0-----3--0-----3----|-----3--0-----3--0-----3----|
 
     PM-------------------------------------------------|
e|----------------------------|----------------------------|-------|-------|
B|----------------------------|----------------------------|-------|-------|
G|----------------------------|----------------------------|-------|-------|
D|----------------------------|----------------------------|--2L---|--2----|
A|--4--------4--------4-------|--5--------5--------5-------|--2L---|--2----|
E|-----3--0-----3--0-----3----|-----3--0-----3--0-----3----|-------|-------|
 
 
[Post-Chorus]
                                         PM--------------|
e|----------------------------|----------------------------|
B|----------------------------|----------------------------|
G|----------------------------|----------------------------|
D|--2-----------------3L------|--3-------------------------|
A|-----------0----------------|-----0-----0--0--0--0--0----|
E|----------------------------|----------------------------|
 
                                         PM--------------|
e|----------------------------|----------------------------|
B|----------------------------|----------------------------|
G|----------------------------|----------------------------|
D|--3-----------------5L------|--5-------------------------|
A|-----------0----------------|----------------------------|
E|----------------------------|-----3-----3--3--3--3--3----|
 
                                         PM--------------|
e|----------------------------|----------------------------|
B|----------------------------|----------------------------|
G|----------------------------|----------------------------|
D|--2-----------------3L------|--3-------------------------|
A|-----------0----------------|-----0-----0--0--0--0--0----|
E|----------------------------|----------------------------|
 
e|----------------------------|----------------------------|
B|----------------------------|----------------------------|
G|----------------------------|----------------------------|
D|--3-----------------5L------|--5-------------------------|
A|-----------0----------------|----------------------------|
E|----------------------------|-----3L-------3-------------|
 
e|----------------------------------|
B|----------------------------------|
G|----------------------------------|
D|----------------------------------|
A|-----------3--2-------------------|
E|--0--1--3--------3--0-------------|
 
     PM--------|
e|--------------3L------------|--3--7----------------------|
B|--------------3L------------|--3--------8----------------|
G|----------------------------|--------------7-------------|
D|----------------------------|----------------------------|
A|----------------------------|----------------------------|
E|--0--0--0--0----------------|----------------------------|
 
     PM--------|
e|--------------1L------------|--1--5----------------------|
B|--------------1L------------|--1--------6----------------|
G|----------------------------|--------------5-------------|
D|----------------------------|----------------------------|
A|--0--0--0--0----------------|----------------------------|
E|----------------------------|----------------------------|
 
     PM--------|
e|--------------3L------------|--3--7----------------------|
B|--------------3L------------|--3--------8----------------|
G|----------------------------|--------------7-------------|
D|----------------------------|----------------------------|
A|----------------------------|----------------------------|
E|--0--0--0--0----------------|----------------------------|
 
     PM--------|
e|--------------1L------------|--1--5----------------------|
B|--------------1L------------|--1--------6----------------|
G|----------------------------|--------------5-------------|
D|----------------------------|----------------------------|
A|--0--0--0--0----------------|----------------------------|
E|----------------------------|----------------------------|
 
 
[Verse 2]
     PM--------|
e|--------------3L------------|--3--7----------------------|
B|--------------3L------------|--3--------8----------------|
G|----------------------------|--------------7-------------|
D|----------------------------|----------------------------|
A|----------------------------|----------------------------|
E|--0--0--0--0----------------|----------------------------|
 
     PM--------|
e|--------------1L------------|--1--5----------------------|
B|--------------1L------------|--1--------6----------------|
G|----------------------------|--------------5-------------|
D|----------------------------|----------------------------| x4
A|--0--0--0--0----------------|----------------------------|
E|----------------------------|----------------------------|
 
 
[Chorus]
     PM-------------------------------------------------|
e|----------------------------|----------------------------|
B|----------------------------|----------------------------|
G|----------------------------|----------------------------|
D|----------------------------|----------------------------|
A|--2--------2--------2-------|--3--------3--------3-------|
E|-----3--0-----3--0-----3----|-----3--0-----3--0-----3----|
 
     PM-------------------------------------------------|
e|----------------------------|----------------------------|
B|----------------------------|----------------------------|
G|----------------------------|----------------------------|
D|----------------------------|----------------------------|
A|--4--------4--------4-------|--5--------5--------5-------|
E|-----3--0-----3--0-----3----|-----3--0-----3--0-----3----|
 
     PM-------------------------------------------------|
e|----------------------------|----------------------------|
B|----------------------------|----------------------------|
G|----------------------------|----------------------------|
D|----------------------------|----------------------------|
A|--2--------2--------2-------|--3--------3--------3-------|
E|-----3--0-----3--0-----3----|-----3--0-----3--0-----3----|
 
     PM-------------------------------------------------|
e|----------------------------|----------------------------|-------|-------|
B|----------------------------|----------------------------|-------|-------|
G|----------------------------|----------------------------|-------|-------|
D|----------------------------|----------------------------|--2L---|--2----|
A|--4--------4--------4-------|--5--------5--------5-------|--2L---|--2----|
E|-----3--0-----3--0-----3----|-----3--0-----3--0-----3----|-------|-------|
 
 
[Post-Chorus]
                                         PM--------------|
e|----------------------------|----------------------------|
B|----------------------------|----------------------------|
G|----------------------------|----------------------------|
D|--2-----------------3L------|--3-------------------------|
A|-----------0----------------|-----0-----0--0--0--0--0----|
E|----------------------------|----------------------------|
 
                                         PM--------------|
e|----------------------------|----------------------------|
B|----------------------------|----------------------------|
G|----------------------------|----------------------------|
D|--3-----------------5L------|--5-------------------------|
A|-----------0----------------|----------------------------|
E|----------------------------|-----3-----3--3--3--3--3----|
 
                                         PM--------------|
e|----------------------------|----------------------------|
B|----------------------------|----------------------------|
G|----------------------------|----------------------------|
D|--2-----------------3L------|--3-------------------------|
A|-----------0----------------|-----0-----0--0--0--0--0----|
E|----------------------------|----------------------------|
 
e|----------------------------|----------------------------|
B|----------------------------|----------------------------|
G|----------------------------|----------------------------|
D|--3-----------------5L------|--5-------------------------|
A|-----------0----------------|----------------------------|
E|----------------------------|-----3L-------3-------------|
 
e|----------------------|-----3--3----|----------------------|-----3--3----|
B|----------------------|-----3--3----|----------------------|-----3--3----|
G|----------------------|-------------|----------------------|-------------|
D|----------------------|-------------|----------------------|-------------|
A|-----------3--2-------|-------------|-----------3--2-------|-------------|
E|--0--1--3--------3----|--0----------|--0--1--3--------3----|--0----------|
 
 
e|----------------------|-----3--3----|----------------------------|----------------------|
B|----------------------|-----3--3----|----------------------------|----------------------|
G|----------------------|-------------|----------------------------|----------------------|
D|----------------------|-------------|----------------------------|----------------------|
A|-----------3--2-------|-------------|-----------3--2-------------|-----------3--2--0----|
E|--0--1--3--------3----|--0----------|--0--1--3--------3----------|--0--1--3-------------|
 
 
[Solo]
 
 
[Bridge]
e|----------------------------|----------------------------|
B|----------------------------|--------------1--0----------|
G|--------------2L------------|--2-----------------2-------|
D|----------------------------|--------2--3-----------3----|
A|--0-----0--0----------------|----------------------------|
E|----------------------------|----------------------------|
 
e|----------------------------|----------------------------|----------------------------|-------|
B|----------------------------|----------------------------|----------------------------|-------|
G|----------------------------|----------------------------|----------------------------|-------|
D|--------------2L------------|--2-----0--2--3--2--0--2----|--------------2L------------|--2----|
A|--3-----3--3----------------|----------------------------|--0-----0--0--0L------------|--0----|
E|----------------------------|----------------------------|----------------------------|-------|
 
e|----------------------------|----------------------------|
B|----------------------------|--------------1--0----------|
G|--------------2L------------|--2-----------------2-------|
D|----------------------------|--------2--3-----------3----|
A|--0-----0--0----------------|----------------------------|
E|----------------------------|----------------------------|
 
e|----------------------------|----------------------------|----------------------------|-------|
B|----------------------------|----------------------------|----------------------------|-------|
G|----------------------------|----------------------------|----------------------------|-------|
D|--------------2L------------|--2-----0--2--3--2--0--2----|--------------2L------------|--2----|
A|--3-----3--3----------------|----------------------------|--0-----0--0--0L------------|--0----|
E|----------------------------|----------------------------|----------------------------|-------|
 
e|----------------------------|----------------------------|
B|----------------------------|--------------1--0----------|
G|--------------2L------------|--2-----------------2-------|
D|----------------------------|--------2--3-----------3----|
A|--0-----0--0----------------|----------------------------|
E|----------------------------|----------------------------|
 
e|----------------------------|----------------------------|----------------------------|-------|
B|----------------------------|----------------------------|----------------------------|-------|
G|----------------------------|----------------------------|----------------------------|-------|
D|--------------2L------------|--2-----0--2--3--2--0--2----|--------------2L------------|--2----|
A|--3-----3--3----------------|----------------------------|--0-----0--0--0L------------|--0----|
E|----------------------------|----------------------------|----------------------------|-------|
 
e|----------------------------|----------------------------|
B|----------------------------|--------------1--0----------|
G|--------------2L------------|--2-----------------2-------|
D|----------------------------|--------2--3-----------3----|
A|--0-----0--0----------------|----------------------------|
E|----------------------------|----------------------------|
 
e|----------------------------|----------------------------|----------------------------|-------|
B|----------------------------|----------------------------|----------------------------|-------|
G|----------------------------|----------------------------|----------------------------|-------|
D|--------------2L------------|--2-----0--2--3--2--0--2----|--------------2L------------|--2----|
A|--3-----3--3----------------|----------------------------|--0-----0--0--0L------------|--0----|
E|----------------------------|----------------------------|----------------------------|-------|
 
e|----------------------------|----------------------------|
B|----------------------------|--------------1--0----------|
G|--------------2L------------|--2-----------------2-------|
D|----------------------------|--------2--3-----------3----|
A|--0-----0--0----------------|----------------------------|
E|----------------------------|----------------------------|
 
e|----------------------------|----------------------------|----------------------------|-------|
B|----------------------------|----------------------------|----------------------------|-------|
G|----------------------------|----------------------------|----------------------------|-------|
D|--------------2L------------|--2-----0--2--3--2--0--2----|--------------2L------------|--2----|
A|--3-----3--3----------------|----------------------------|--0-----0--0--0L------------|--0----|
E|----------------------------|----------------------------|----------------------------|-------|
 
e|----------------------------|----------------------------|
B|----------------------------|--------------1--0----------|
G|--------------2L------------|--2-----------------2-------|
D|----------------------------|--------2--3-----------3----|
A|--0-----0--0----------------|----------------------------|
E|----------------------------|----------------------------|
 
e|----------------------------|----------------------------|----------------------------|----------------|
B|----------------------------|----------------------------|----------------------------|----------------|
G|----------------------------|----------------------------|----------------------------|----------------|
D|--------------2L------------|--2-----0--2--3--2--0--2----|--------------2L------------|--2-------------|
A|--3-----3--3----------------|----------------------------|--0-----0--0--0L------------|--0--------7\---|
E|----------------------------|----------------------------|----------------------------|----------------|
 
 
[Intro Reprise]
     PM--------|
e|--------------3L------------|--3--7----------------------|
B|--------------3L------------|--3--------8----------------|
G|----------------------------|--------------7-------------|
D|----------------------------|----------------------------|
A|----------------------------|----------------------------|
E|--0--0--0--0----------------|----------------------------|
 
     PM--------|
e|--------------1L------------|--1--5----------------------|
B|--------------1L------------|--1--------6----------------|
G|----------------------------|--------------5-------------|
D|----------------------------|----------------------------|
A|--0--0--0--0----------------|----------------------------|
E|----------------------------|----------------------------|
 
     PM--------|
e|--------------3L------------|--3--7----------------------|
B|--------------3L------------|--3--------8----------------|
G|----------------------------|--------------7-------------|
D|----------------------------|----------------------------|
A|----------------------------|----------------------------|
E|--0--0--0--0----------------|----------------------------|
 
     PM--------|
e|--------------1L------------|--1--5----------------------|
B|--------------1L------------|--1--------6----------------|
G|----------------------------|--------------5-------------|
D|----------------------------|----------------------------|
A|--0--0--0--0----------------|----------------------------|
E|----------------------------|----------------------------|
 
 
[Verse 1]
     PM--------|
e|--------------3L------------|--3--7----------------------|
B|--------------3L------------|--3--------8----------------|
G|----------------------------|--------------7-------------|
D|----------------------------|----------------------------|
A|----------------------------|----------------------------|
E|--0--0--0--0----------------|----------------------------|
 
     PM--------|
e|--------------1L------------|--1--5----------------------|
B|--------------1L------------|--1--------6----------------|
G|----------------------------|--------------5-------------|
D|----------------------------|----------------------------| x4
A|--0--0--0--0----------------|----------------------------|
E|----------------------------|----------------------------|
 
 
[Chorus]
     PM-------------------------------------------------|
e|----------------------------|----------------------------|
B|----------------------------|----------------------------|
G|----------------------------|----------------------------|
D|----------------------------|----------------------------|
A|--2--------2--------2-------|--3--------3--------3-------|
E|-----3--0-----3--0-----3----|-----3--0-----3--0-----3----|
 
     PM-------------------------------------------------|
e|----------------------------|----------------------------|
B|----------------------------|----------------------------|
G|----------------------------|----------------------------|
D|----------------------------|----------------------------|
A|--4--------4--------4-------|--5--------5--------5-------|
E|-----3--0-----3--0-----3----|-----3--0-----3--0-----3----|
 
     PM-------------------------------------------------|
e|----------------------------|----------------------------|
B|----------------------------|----------------------------|
G|----------------------------|----------------------------|
D|----------------------------|----------------------------|
A|--2--------2--------2-------|--3--------3--------3-------|
E|-----3--0-----3--0-----3----|-----3--0-----3--0-----3----|
 
     PM-------------------------------------------------|
e|----------------------------|----------------------------|-------|-------|
B|----------------------------|----------------------------|-------|-------|
G|----------------------------|----------------------------|-------|-------|
D|----------------------------|----------------------------|--2L---|--2----|
A|--4--------4--------4-------|--5--------5--------5-------|--2L---|--2----|
E|-----3--0-----3--0-----3----|-----3--0-----3--0-----3----|-------|-------|
 
 
[Post-Chorus]
                                         PM--------------|
e|----------------------------|----------------------------|
B|----------------------------|----------------------------|
G|----------------------------|----------------------------|
D|--2-----------------3L------|--3-------------------------|
A|-----------0----------------|-----0-----0--0--0--0--0----|
E|----------------------------|----------------------------|
 
                                         PM--------------|
e|----------------------------|----------------------------|
B|----------------------------|----------------------------|
G|----------------------------|----------------------------|
D|--3-----------------5L------|--5-------------------------|
A|-----------0----------------|----------------------------|
E|----------------------------|-----3-----3--3--3--3--3----|
 
                                         PM--------------|
e|----------------------------|----------------------------|
B|----------------------------|----------------------------|
G|----------------------------|----------------------------|
D|--2-----------------3L------|--3-------------------------|
A|-----------0----------------|-----0-----0--0--0--0--0----|
E|----------------------------|----------------------------|
 
                                         PM--------------|
e|----------------------------|----------------------------|
B|----------------------------|----------------------------|
G|----------------------------|----------------------------|
D|--3-----------------5L------|--5-------------------------|
A|-----------0----------------|----------------------------|
E|----------------------------|-----3-----3--3--3--3--3----|
 
                                         PM--------------|
e|----------------------------|----------------------------|
B|----------------------------|----------------------------|
G|----------------------------|----------------------------|
D|--2-----------------3L------|--3-------------------------|
A|-----------0----------------|-----0-----0--0--0--0--0----|
E|----------------------------|----------------------------|
 
                                         PM--------------|
e|----------------------------|----------------------------|
B|----------------------------|----------------------------|
G|----------------------------|----------------------------|
D|--3-----------------5L------|--5-------------------------|
A|-----------0----------------|----------------------------|
E|----------------------------|-----3-----3--3--3--3--3----|
 
                                         PM--------------|
e|----------------------------|----------------------------|
B|----------------------------|----------------------------|
G|----------------------------|----------------------------|
D|--2-----------------3L------|--3-------------------------|
A|-----------0----------------|-----0-----0--0--0--0--0----|
E|----------------------------|----------------------------|
 
e|----------------------------|----------------------------|
B|----------------------------|----------------------------|
G|----------------------------|----------------------------|
D|--3-----------------5L------|--5-------------------------|
A|-----------0----------------|----------------------------|
E|----------------------------|-----3L-------3-------------|
 
e|----------------------------------|
B|----------------------------------|
G|----------------------------------|
D|----------------------------------|
A|-----------3--2-------------------|
E|--0--1--3--------3--0-------------|
 
 
[Outro 1]
     PM--------|
e|--------------3L------------|--3--7----------------------|
B|--------------3L------------|--3--------8----------------|
G|----------------------------|--------------7-------------|
D|----------------------------|----------------------------|
A|----------------------------|----------------------------|
E|--0--0--0--0----------------|----------------------------|
 
     PM--------|
e|--------------1L------------|--1--5----------------------|
B|--------------1L------------|--1--------6----------------|
G|----------------------------|--------------5-------------|
D|----------------------------|----------------------------|
A|--0--0--0--0----------------|----------------------------|
E|----------------------------|----------------------------|
 
     PM--------|
e|--------------3L------------|--3--7----------------------|
B|--------------3L------------|--3--------8----------------|
G|----------------------------|--------------7-------------|
D|----------------------------|----------------------------|
A|----------------------------|----------------------------|
E|--0--0--0--0----------------|----------------------------|
 
     PM--------|
e|--------------1L------------|--1--5----------------------|
B|--------------1L------------|--1--------6----------------|
G|----------------------------|--------------5-------------|
D|----------------------------|----------------------------|
A|--0--0--0--0----------------|----------------------------|
E|----------------------------|----------------------------|
 
 
[Outro 2]
     PM--------|
e|--------------3L------------|--3--4-----0----------------|
B|--------------3L------------|--3-----------0-------------|
G|----------------------------|----------------------------|
D|----------------------------|----------------------------|
A|----------------------------|----------------------------|
E|--0--0--0--0----------------|----------------------------|
 
     PM--------|
e|--------------1L------------|--1--5----------------------|
B|--------------1L------------|--1--------6----------------|
G|----------------------------|--------------5-------------|
D|----------------------------|----------------------------|
A|--0--0--0--0----------------|----------------------------|
E|----------------------------|----------------------------|
 
     PM--------|
e|--------------3L------------|--3--4-----0----------------|
B|--------------3L------------|--3-----------0-------------|
G|----------------------------|----------------------------|
D|----------------------------|----------------------------|
A|----------------------------|----------------------------|
E|--0--0--0--0----------------|----------------------------|
 
     PM--------|
e|--------------1L------------|--1--5----------------------|
B|--------------1L------------|--1--------6----------------|
G|----------------------------|--------------5-------------|
D|----------------------------|----------------------------|
A|--0--0--0--0----------------|----------------------------|
E|----------------------------|----------------------------|
 
     PM--------|
e|--------------3L------------|--3--4-----0----------------|
B|--------------3L------------|--3-----------0-------------|
G|----------------------------|----------------------------|
D|----------------------------|----------------------------|
A|----------------------------|----------------------------|
E|--0--0--0--0----------------|----------------------------|
 
     PM--------|
e|--------------1L------------|--1--5----------------------|
B|--------------1L------------|--1--------6----------------|
G|----------------------------|--------------5-------------|
D|----------------------------|----------------------------|
A|--0--0--0--0----------------|----------------------------|
E|----------------------------|----------------------------|
 
     PM--------|
e|--------------3L------------|--3--4-----0----------------|
B|--------------3L------------|--3-----------0-------------|
G|----------------------------|----------------------------|
D|----------------------------|----------------------------|
A|----------------------------|----------------------------|
E|--0--0--0--0----------------|----------------------------|
 
     PM--------|
e|--------------1L------------|--1----||
B|--------------1L------------|--1----||
G|----------------------------|-------||
D|----------------------------|-------||
A|--0--0--0--0----------------|-------||
E|----------------------------|-------||
            
Submit corrections

↑ Back to top | Tablatures and chords for acoustic guitar and electric guitar, ukulele, drums are parodies/interpretations of the original songs. You may use it for private study, scholarship, research or language learning purposes only