» » »

Dexter Gordon - Dexter Rides Again Tabs

Artists:  A B C D E F G H I J K L M N O P Q R S T U V W X Y Z # 

Dexter Rides Again Tabs

(ver. 1) Click to play this song!
Dexter Gordon
 Rating:
4.3/5 (20 votes)

 Dexter Rides Again  lessons Tabs too difficult? Try these video lessons and learn fast
 
                [A]
                                                                   
     Fmaj7            Gb7              Fmaj7            Gb7              Fmaj7            Gb7      
e|--|----------------|----------------|----------------|----------------|----------------|----------------|
B|--|--------------4-|----2---------5-|----3-----------|----------------|----------------|----------------|
G|5-|----2-----------|----------------|------5-2-------|--------------5-|----2---------5-|3---------3-1---|
D|--|----------------|----------------|----------3-2-1-|----------------|----------------|----1-2-4-----4-|
A|--|----------------|----------------|----------------|----4-----------|--------3-5-----|--4-------------|
E|--|----------------|----------------|----------------|----------------|----------------|----------------|

 |---First Ending------------------||-----Second Ending---------------|
 |                                 ||                                 |
 |Fmaj7            C7(#9)          ||Fmaj7            F6              |
e|----------------|----------------||----------------|----------------|
B|----------------|----------------||----------------|----------------|
G|----------------|--------------5-||----------------|----------------|
D|3-----4-3-------|----------------||3-----4-3-------|--------------4-|
A|--4-3-----------|----------------||--4-3-----------|----------------|
E|----------------|----------------||----------------|----------------| 


[B]

  F7                       F7(#5)   Bbmaj7  Cm7      Dm7     Bbmaj7   Eb7
e|----------1-----|--1-----1-------|1---------------|----------------|----------------|----------------|
B|------2-1-----2-|1---------------|--4-3-1-----3---|1---------------|----4-----6-----|4---4-----------|
G|--3-2-----------|----------------|--------3-2---2-|--3-------------|--3---5-6-------|--------------6-|
D|3---------------|----------------|----------------|--------------4-|5---------------|----------------|
A|----------------|----------------|----------------|----------------|----------------|----------------|
E|----------------|----------------|----------------|----------------|----------------|----------------|

  Db7              C7
e|----------------|----------------|
B|----------3-6-5-|----------------|
G|--3---4-6-------|----------2-3-5-|
D|----------------|--2---3-5-------|
A|----------------|----------------|
E|----------------|----------------|
            
Submit corrections


        Dexter Rides Again  lessons Hard to play? Try these video lessons and learn fast Dexter Rides Again  lessons
        
↑ Back to top | Tablatures and chords for acoustic guitar and electric guitar, ukulele, drums are parodies/interpretations of the original songs. You may use it for private study, scholarship, research or language learning purposes only