» » »

Devotion - Sunshine Tabs

Artists:  A B C D E F G H I J K L M N O P Q R S T U V W X Y Z # 

Sunshine Tabs

(ver. 1) Click to play this song!
Devotion
 Rating:
4/5 (4 votes)

 Sunshine lessons Tabs too difficult? Try these video lessons and learn fast
 
                e----------------------------------------------
B----------------1-------3-----3p1----1p3------
G---------2----------2-------------------------
D---0h2----------------------------------------
A----------------------------------------------
E----------------------------------------------


e----------------------------------------------
B----------------1-------3-----3p1-------------
G---------2----------2-------------------------
D---0h2----------------------------------------
A----------------------------------------------
E----------------------------------------------
            
Submit corrections


        Sunshine lessons Hard to play? Try these video lessons and learn fast Sunshine lessons
        
↑ Back to top | Tablatures and chords for acoustic guitar and electric guitar, ukulele, drums are parodies/interpretations of the original songs. You may use it for private study, scholarship, research or language learning purposes only