Home » D » Devilment »

Devilment - Summer Arteries Tabs

Artists:  A B C D E F G H I J K L M N O P Q R S T U V W X Y Z # 

Summer Arteries Tabs

(ver. 1) Click to play this song!
Devilment
C-G-C-F-A-D


-------------------------------------------------------------------------------------------|
-------------------------------------------------------------------------------------------|
----------2-----------------------2-----------------------2---------------------2----------|
-------4--------4-----4--------4--------4-----4--------2---------2-----------2----------2--|
----0--------0-----0--------0--------0-----0--------0---------------------0----------------|
-4-----------------------4-----------------------2------------2--------2------------2------|


-------------------------------------------------------------------------------------------|
-------------------------------------------------------------------------------------------|
----------2-----------------------2-----------------------2---------------------2----------|
-------4--------4-----4--------4--------4-----4--------2---------2-----------2----------2--|
----0--------0-----0--------0--------0-----0--------0---------------------0----------------|
-4-----------------------4-----------------------2------------2--------2------------2------|




0:16
                                                      SLIGHTLY TOUCH TO GIVE OFF HARMONIC FEEDBACK
                                                          T      T
--------------------------------------------------------------------------_----------------------|
10-10-9-9\7-7------------------/-10-10-9-9\7-7---------------------------/ \----_------_---------|
--------------6-6--\4--4-/9-4~~--------------------6-6~~[18]---[18]--4--24242--/ \----/ \--------|
------------------------------------------------------------------------------2-4-2--2/4\2--2.75V|
-------------------------------------------------------------------------------------------------|
-------------------------------------------------------------------------------------------------|
                                                                                             H


0:36
                      )  |  |  |  |          )~~     )()         )~~~   )~~~(
---)()(-------14-16-16--16-16-16-16--16-14-16------16----16-14-16-----16------\14-|
-17----\-----------------------------------------X--------------------------------|
---------------------------------PH--------------X--------------------------------|
----------------------------------------------------------------------------------|
----------------------------------------------------------------------------------|
----------------------------------------------------------------------------------|

                                _____________                                   )
-14------14------14------------/             \--------12------12------12~~~-------|
-----12------10-----9--9-9-10-910910910910910910-9-10----9-10----9-10-------------|
----------------------------------------------------------------------------------|
----------------------------------------------------------------------------------|
----------------------------------------------------------------------------------|
----------------------------------------------------------------------------------|







0:58


-----------------------------------------------------------------------|
-----------------------------------------------------------------------|
-------14-14-14-14-14-14-14-14------------14-14-14-14-14-14-14-14------|
--------x--x--x--x--x--x--x--x-------------x--x--x--x--x--x--x--x------|
-4--4--12-12-12-12-12-12-12-12--0-0-4--4--12-12-12-12-12-12-12-12--0-0-|
-4--4---------------------------0-0-4--4---------------------------0-0-|


----------------------------------------------------------------------|
----------------------------------------------------------------------|
-------13-13-13-13-13-13-13-13-------------13-13-13-11-11-11-11-------|
--------x--x--x--x--x--x--x--x--------------x--x--x--x--x--x--x-------|
-2--2--11-11-11-11-11-11-11-11--0-0-2--2---11-11-11--9--9--9--9--0-0--|
-2--2---------------------------0-0-2--2-------------------------0-0--|


-----------------------------------------------------------------------|
-----------------------------------------------------------------------|
-------14-14-14-14-14-14-14-14------------14-14-14-14-14-14-14-14------|
--------x--x--x--x--x--x--x--x-------------x--x--x--x--x--x--x--x------|
-4--4--12-12-12-12-12-12-12-12--0-0-4--4--12-12-12-12-12-12-12-12--0-0-|
-4--4---------------------------0-0-4--4---------------------------0-0-|


-----------------------------------------------------------------------|
-----------------------------------------------------------------------|
-------13-13-13-13-13-13-13-13-------------13-13-13-11-11-11-11--------|
--------x--x--x--x--x--x--x--x--------------x--x--x--x--x--x--x--------|
-2--2--11-11-11-11-11-11-11-11--0-0-2--2---11-11-11--9--9--9--9--0-0---|
-2--2---------------------------0-0-2--2-------------------------0-0---|






-----------------------------------------------------------------------|
-----------------------------------------------------------------------|
-------14-14-14-14-14-14-14-14------------14-14-14-14-14-14-14-14------|
--------x--x--x--x--x--x--x--x-------------x--x--x--x--x--x--x--x------|
-4--4--12-12-12-12-12-12-12-12--0-0-4--4--12-12-12-12-12-12-12-12--0-0-|
-4--4---------------------------0-0-4--4---------------------------0-0-|


----------------------------------------------------------------------|
----------------------------------------------------------------------|
-------13-13-13-13-13-13-13-13-------------13-13-13-11-11-11-11-------|
--------x--x--x--x--x--x--x--x--------------x--x--x--x--x--x--x-------|
-2--2--11-11-11-11-11-11-11-11--0-0-2--2---11-11-11--9--9--9--9--0-0--|
-2--2---------------------------0-0-2--2-------------------------0-0--|





-------------------------------------------------------------|
-------------------------------------------------------------|
-------14-14-14-14-14-14-14----------14-14-14-14-14-14-14----|
--------x--x--x--x--x--x--x-----------x--x--x--x--x--x--x----|
-4--4--12-12-12-12-12-12-12\---4--4--12-12-12-12-12-12-12\---|
-4--4--------------------------4--4--------------------------|


------------------------------------------|
------------------------------------------|
-------13-13-13-13-13-13-13---------------|
--------x--x--x--x--x--x--x----------2----|
-2--2--11-11-11-11-11-11-11\---4--0--2----|
-2--2--------------------------4--0--2----|






1:45



---------------------------------------------------------------------------------------|
---------------------------------------------------------------------------------------|
---------------------------------------------------------------------------------------|
---------------------------------------------------------------------------------------|
---------------------------------------------------------------------------------------|
-0-10-13-12-10-12-0-10-13-12-10-12-0-10-13-12-10-12-0-10-13-12-10-12-0-8-10-8-0-8-10-8-|


---------------------------------------------------------------------------------------|
---------------------------------------------------------------------------------------|
---------------------------------------------------------------------------------------|
---------------------------------------------------------------------------------------|
---------------------------------------------------------------------------------------|
-0-10-13-12-10-12-0-10-13-12-10-12-0-10-13-12-10-12-0-10-13-12-10-12-0-8-10-8-0-8-10-8-|


---------------------------------------------------------------------------------------|
---------------------------------------------------------------------------------------|
---------------------------------------------------------------------------------------|
---------------------------------------------------------------------------------------|
---------------------------------------------------------------------------------------|
-0-10-13-12-10-12-0-10-13-12-10-12-0-10-13-12-10-12-0-10-13-12-10-12-0-8-10-8-0-8-10-8-|


---------------------------------------------------------------------------------------|
---------------------------------------------------------------------------------------|
---------------------------------------------------------------------------------------|
---------------------------------------------------------------------------------------|
---------------------------------------------------------------------------------------|
-0-10-13-12-10-12-0-10-13-12-10-12-0-10-13-12-10-12-0-10-13-12-10-12-0-8-10-8-0-8-10-8-|







---------------------------------------------------------------------------------------|
---------------------------------------------------------------------------------------|
---------------------------------------------------------------------------------------|
---------------------------------------------------------------------------------------|
---------------------------------------------------------------------------------------|
-0-10-13-12-10-12-0-10-13-12-10-12-0-10-13-12-10-12-0-10-13-12-10-12-0-8-10-8-0-8-10-8-|


---------------------------------------------------------------------------------------|
---------------------------------------------------------------------------------------|
---------------------------------------------------------------------------------------|
---------------------------------------------------------------------------------------|
---------------------------------------------------------------------------------------|
-0-10-13-12-10-12-0-10-13-12-10-12-0-10-13-12-10-12-0-10-13-12-10-12-0-8-10-8-0-8-10-8-|


---------------------------------------------------------------------------------------|
---------------------------------------------------------------------------------------|
---------------------------------------------------------------------------------------|
---------------------------------------------------------------------------------------|
---------------------------------------------------------------------------------------|
-0-10-13-12-10-12-0-10-13-12-10-12-0-10-13-12-10-12-0-10-13-12-10-12-0-8-10-8-0-8-10-8-|


---------------------------------------------------------------------------------------|
---------------------------------------------------------------------------------------|
---------------------------------------------------------------------------------------|
---------------------------------------------------------------------------------------|
---------------------------------------------------------------------------------------|
-0-10-13-12-10-12-0-10-13-12-10-12-0-10-13-12-10-12-0-10-13-12-10-12-0-8-10-8-0-8-10-8-|


2:14

-----------------------------------------------------------------|
-----------------------------------------------------------------|
-----------------------------------------------------------------|
-----------------------------------------------------------------|
---6-------------6---3--6--3----6----------6-5-------6-5-----)---|
-0-6--0-6--5~--0-6-0-3--6--3--0-6--0-6--5~-----5-6-------5-5-----|
 *    *        *   *          *    *       * * * *   * * *


-----------------------------------------------------------------|
-----------------------------------------------------------------|
-----------------------------------------------------------------|
-----------------------------------------------------------------|
---6-------------6---3--6--3----6----------6-5-------6-5-----)---|
-0-6--0-6--5~--0-6-0-3--6--3--0-6--0-6--5~-----5-6-------5-5-----|
 *    *        *   *          *    *       * * * *   * * *


-----------------------------------------------------------------|
-----------------------------------------------------------------|
-----------------------------------------------------------------|
-----------------------------------------------------------------|
---6-------------6---3--6--3----6----------6-5-------6-5-----)---|
-0-6--0-6--5~--0-6-0-3--6--3--0-6--0-6--5~-----5-6-------5-5-----|
 *    *        *   *          *    *       * * * *   * * *


-----------------------------------------------------------------|
-----------------------------------------------------------------|
-----------------------------------------------------------------|
-----------------------------------------------------------------|
---6-------------6---3--6--3----6----------6-5-------6-5-----)---|
-0-6--0-6--5~--0-6-0-3--6--3--0-6--0-6--5~-----5-6-------5-5-----|
 *    *        *   *          *    *       * * * *   * * *


2:43

1
-----------------------------------------------------------------------|
-----------------------------------------------------------------------|
-------14-14-14-14-14-14-14-14------------14-14-14-14-14-14-14-14------|
--------x--x--x--x--x--x--x--x-------------x--x--x--x--x--x--x--x------|
-4--4--12-12-12-12-12-12-12-12--0-0-4--4--12-12-12-12-12-12-12-12--0-0-|
-4--4---------------------------0-0-4--4---------------------------0-0-|

2
-----------------------------------------------------------------------|
-----------------------------------------------------------------------|
-----------------------------------------------------------------------|
-----------------------------------------------------------------------|
-4--4---------------------------0-0-4--4--------------------------0-0--|
-4--4---7--7--7--7--7--7--7--7--0-0-4--4--7--7--7--7--7--7--7--7--0-0--|

1
----------------------------------------------------------------------|
----------------------------------------------------------------------|
-------13-13-13-13-13-13-13-13-------------13-13-13-11-11-11-11-------|
--------x--x--x--x--x--x--x--x--------------x--x--x--x--x--x--x-------|
-2--2--11-11-11-11-11-11-11-11--0-0-2--2---11-11-11--9--9--9--9--0-0--|
-2--2---------------------------0-0-2--2-------------------------0-0--|

2
--------------------------------------------------------------------|
--------------------------------------------------------------------|
--------------------------------------------------------------------|
--------------------------------------------------------------------|
-2--2--------------------------0-0-2--2------------------------0-0--|
-2--2--6--6--6--6--6--6--6--6--0-0-2--2--6--6--6---4--4--4--4--0-0--|



1
-----------------------------------------------------------------------|
-----------------------------------------------------------------------|
-------14-14-14-14-14-14-14-14------------14-14-14-14-14-14-14-14------|
--------x--x--x--x--x--x--x--x-------------x--x--x--x--x--x--x--x------|
-4--4--12-12-12-12-12-12-12-12--0-0-4--4--12-12-12-12-12-12-12-12--0-0-|
-4--4---------------------------0-0-4--4---------------------------0-0-|

2
-----------------------------------------------------------------------|
-----------------------------------------------------------------------|
-----------------------------------------------------------------------|
-----------------------------------------------------------------------|
-4--4---------------------------0-0-4--4--------------------------0-0--|
-4--4---7--7--7--7--7--7--7--7--0-0-4--4--7--7--7--7--7--7--7--7--0-0--|

1
----------------------------------------------------------------------|
----------------------------------------------------------------------|
-------13-13-13-13-13-13-13-13-------------13-13-13-11-11-11-11-------|
--------x--x--x--x--x--x--x--x--------------x--x--x--x--x--x--x-------|
-2--2--11-11-11-11-11-11-11-11--0-0-2--2---11-11-11--9--9--9--9--0-0--|
-2--2---------------------------0-0-2--2-------------------------0-0--|

2
--------------------------------------------------------------------|
--------------------------------------------------------------------|
--------------------------------------------------------------------|
--------------------------------------------------------------------|
-2--2--------------------------0-0-2--2------------------------0-0--|
-2--2--6--6--6--6--6--6--6--6--0-0-2--2--6--6--6---4--4--4--4--0-0--|


2:58

1
-------------------------------------------------------------------------|
-------------------------------------------------------------------------|
--------14-14-14-14-14-14-14-14-------------14-14-14-14-14-14-14-14------|
---------x--x--x--x--x--x--x--x--------------x--x--x--x--x--x--x--x------|
-4--4-4-12-12-12-12-12-12-12-12--0-0-4--4-4-12-12-12-12-12-12-12-12--0-0-|
-4--4-4--------------------------0-0-4--4-4--------------------------0-0-|

2
--------------------------------------------------------------------------|
--------------------------------------------------------------------------|
---------18-18-18-18-18-18-18-18-------------18-18-18-18-18-18-18-18------|
----------x--x--x--x--x--x--x--x--------------x--x--x--x--x--x--x--x------|
-4--4--4-16-16-16-16-16-16-16-16--0-0-4--4-4-16-16-16-16-16-16-16-16--0-0-|
-4--4--4--------------------------0-0-4--4-4--------------------------0-0-|

1
-----------------------------------------------------------------------|
-----------------------------------------------------------------------|
--------13-13-13-13-13-13-13-13-------------13-13-13-11-11-11-11-------|
---------x--x--x--x--x--x--x--x--------------x--x--x--x--x--x--x-------|
-2--2-2-11-11-11-11-11-11-11-11--0-0-2--2-2-11-11-11--9--9--9--9--0-0--|
-2--2-2--------------------------0-0-2--2-2-----------------------0-0--|

2
-----------------------------------------------------------------------|
-----------------------------------------------------------------------|
--------16-16-16-16-16-16-16-16-------------16-16-16-14-14-14-14-------|
---------x--x--x--x--x--x--x--x--------------x--x--x--x--x--x--x-------|
-2--2-2-14-14-14-14-14-14-14-14--0-0-2--2-2-14-14-14-12-12-12-12--0-0--|
-2--2-2--------------------------0-0-2--2-2-----------------------0-0--|




1
-------------------------------------------------------------------------|
-------------------------------------------------------------------------|
--------14-14-14-14-14-14-14-14-------------14-14-14-14-14-14-14-14------|
---------x--x--x--x--x--x--x--x--------------x--x--x--x--x--x--x--x------|
-4--4-4-12-12-12-12-12-12-12-12--0-0-4--4-4-12-12-12-12-12-12-12-12--0-0-|
-4--4-4--------------------------0-0-4--4-4--------------------------0-0-|

2
--------------------------------------------------------------------------|
--------------------------------------------------------------------------|
---------18-18-18-18-18-18-18-18-------------18-18-18-18-18-18-18-18------|
----------x--x--x--x--x--x--x--x--------------x--x--x--x--x--x--x--x------|
-4--4--4-16-16-16-16-16-16-16-16--0-0-4--4-4-16-16-16-16-16-16-16-16--0-0-|
-4--4--4--------------------------0-0-4--4-4--------------------------0-0-|

1
-----------------------------------------------------------------------|
-----------------------------------------------------------------------|
--------13-13-13-13-13-13-13-13-------------13-13-13-11-11-11-11-------|
---------x--x--x--x--x--x--x--x--------------x--x--x--x--x--x--x-------|
-2--2-2-11-11-11-11-11-11-11-11--0-0-2--2-2-11-11-11--9--9--9--9--0-0--|
-2--2-2--------------------------0-0-2--2-2-----------------------0-0--|

2
-----------------------------------------------------------------------|
-----------------------------------------------------------------------|
--------16-16-16-16-16-16-16-16-------------16-16-16-14-14-14-14-------|
---------x--x--x--x--x--x--x--x--------------x--x--x--x--x--x--x-------|
-2--2-2-14-14-14-14-14-14-14-14--0-0-2--2-2-14-14-14-12-12-12-12--0-0--|
-2--2-2--------------------------0-0-2--2-2-----------------------0-0--|







3:12



---------------------------------------------------------------------------------------|
---------------------------------------------------------------------------------------|
---------------------------------------------------------------------------------------|
---------------------------------------------------------------------------------------|
---------------------------------------------------------------------------------------|
-0-10-13-12-10-12-0-10-13-12-10-12-0-10-13-12-10-12-0-10-13-12-10-12-0-8-10-8-0-8-10-8-|


---------------------------------------------------------------------------------------|
---------------------------------------------------------------------------------------|
---------------------------------------------------------------------------------------|
---------------------------------------------------------------------------------------|
---------------------------------------------------------------------------------------|
-0-10-13-12-10-12-0-10-13-12-10-12-0-10-13-12-10-12-0-10-13-12-10-12-0-8-10-8-0-8-10-8-|


---------------------------------------------------------------------------------------|
---------------------------------------------------------------------------------------|
---------------------------------------------------------------------------------------|
---------------------------------------------------------------------------------------|
---------------------------------------------------------------------------------------|
-0-10-13-12-10-12-0-10-13-12-10-12-0-10-13-12-10-12-0-10-13-12-10-12-0-8-10-8-0-8-10-8-|


---------------------------------------------------------------------------------------|
---------------------------------------------------------------------------------------|
---------------------------------------------------------------------------------------|
---------------------------------------------------------------------------------------|
---------------------------------------------------------------------------------------|
-0-10-13-12-10-12-0-10-13-12-10-12-0-10-13-12-10-12-0-10-13-12-10-12-0-8-10-8-0-8-10-8-|






---------------------------------------------------------------------------------------|
---------------------------------------------------------------------------------------|
---------------------------------------------------------------------------------------|
---------------------------------------------------------------------------------------|
---------------------------------------------------------------------------------------|
-0-10-13-12-10-12-0-10-13-12-10-12-0-10-13-12-10-12-0-10-13-12-10-12-0-8-10-8-0-8-10-8-|


---------------------------------------------------------------------------------------|
---------------------------------------------------------------------------------------|
---------------------------------------------------------------------------------------|
---------------------------------------------------------------------------------------|
---------------------------------------------------------------------------------------|
-0-10-13-12-10-12-0-10-13-12-10-12-0-10-13-12-10-12-0-10-13-12-10-12-0-8-10-8-0-8-10-8-|


---------------------------------------------------------------------------------------|
---------------------------------------------------------------------------------------|
---------------------------------------------------------------------------------------|
---------------------------------------------------------------------------------------|
---------------------------------------------------------------------------------------|
-0-10-13-12-10-12-0-10-13-12-10-12-0-10-13-12-10-12-0-10-13-12-10-12-0-8-10-8-0-8-10-8-|


---------------------------------------------------------------------------------------|
---------------------------------------------------------------------------------------|
---------------------------------------------------------------------------------------|
---------------------------------------------------------------------------------------|
---------------------------------------------------------------------------------------|
-0-10-13-12-10-12-0-10-13-12-10-12-0-10-13-12-10-12-0-10-13-12-10-12-0-8-10-8-0-8-10-8-|


3:41

-----------------------------------------------------------------|
-----------------------------------------------------------------|
-----------------------------------------------------------------|
-----------------------------------------------------------------|
---6-------------6---3--6--3----6----------6-5-------6-5-----)---|
-0-6--0-6--5~--0-6-0-3--6--3--0-6--0-6--5~-----5-6-------5-5-----|
 *    *        *   *          *    *       * * * *   * * *


-----------------------------------------------------------------|
-----------------------------------------------------------------|
-----------------------------------------------------------------|
-----------------------------------------------------------------|
---6-------------6---3--6--3----6----------6-5-------6-5-----)---|
-0-6--0-6--5~--0-6-0-3--6--3--0-6--0-6--5~-----5-6-------5-5-----|
 *    *        *   *          *    *       * * * *   * * *


-----------------------------------------------------------------|
-----------------------------------------------------------------|
-----------------------------------------------------------------|
-----------------------------------------------------------------|
---6-------------6---3--6--3----6----------6-5-------6-5-----)---|
-0-6--0-6--5~--0-6-0-3--6--3--0-6--0-6--5~-----5-6-------5-5-----|
 *    *        *   *          *    *       * * * *   * * *


-----------------------------------------------------------------|
-----------------------------------------------------------------|
-----------------------------------------------------------------|
-----------------------------------------------------------------|
---6-------------6---3--6--3----6----------6-5-------6-5-----)---|
-0-6--0-6--5~--0-6-0-3--6--3--0-6--0-6--5~-----5-6-------5-5-----|
 *    *        *   *          *    *       * * * *   * * *



-------------------------------------------------------------------|
-------------------------------------------------------------------|
-------------------------------------------------------------------|
-------------------------------------------------------------------|
-6-5-------6-5-----)--6-5-------6-5-----)--6-5-------6-5-----)-----|
-----5-6-------5-5--------5-6-------5-5--------5-6-------5-5-------|
 * * * *   * * *      * * * *   * * *      * * * *   * * *

4:15

L
---------------------------------------------------------------------------------------|
---------------------------------------------------------------------------------------|
---------------------------------------------------------------------------------------|
---------------------------------------------------------------------------------------|
---------------------------------------------------------------------------------------|
-0-0-0-0-6-5-4-0-0-0-0-6-5-4-00000-00000-0-0-0-0-6-5-4-0-0-0-0-6-5-4-00000-00000-00000-|
 * * * *       * * * *       ***** ***** * * * *       * * * *       ***** ***** *****

R                                                                  B
---------------------------------------------------------------------------------------------|
---------------------------------------------------------------------------------------------|
---------------------------------------------------------------------------------------------|
---------------------------------------------------------------------------------------------|
---------------------------------------------------------------------------------------------|
-0-0-0-0-6-5-4-0-0-0-0-6-5-4-00000-00000-0-0-0-0-6-5-4-0-0-0-0-6-5-4-00000-00000-00000-00000-|
 * * * *       * * * *       ***** ***** * * * *       * * * *       ***** ***** ***** *****






4:32

----------------------------------------------------------------------------|
----------------------------------------------------------------------------|
----------------------------------------------------------------------------|
----------------------------------------------------------------------------|
----------------------------------------------------------------------------|
-1313131313131313-0-0-0---1313131313131313-0-0-0---000-13-000-13-000-13-----|
  * * * * * * * *       |  * * * * * * * *       | ***    ***    ***


----------------------------------------------------------------------------|
----------------------------------------------------------------------------|
----------------------------------------------------------------------------|
----------------------------------------------------------------------------|
----------------------------------------------------------------------------|
-1313131313131313-0-0-0---1313131313131313-0-0-0---000-13-000-13-000-13-----|
  * * * * * * * *       |  * * * * * * * *       | ***    ***    ***


----------------------------------------------------------------------------|
----------------------------------------------------------------------------|
----------------------------------------------------------------------------|
----------------------------------------------------------------------------|
----------------------------------------------------------------------------|
-1313131313131313-0-0-0---1313131313131313-0-0-0---000-13-000-13-000-13-----|
  * * * * * * * *       |  * * * * * * * *       | ***    ***    ***



----------------------------------------------------------------------------|
----------------------------------------------------------------------------|
----------------------------------------------------------------------------|
----------------------------------------------------------------------------|
----------------------------------------------------------------------------|
-1313131313131313-0-0-0---1313131313131313-0-0-0---000-13-000-13-000-13-----|
  * * * * * * * *       |  * * * * * * * *       | ***    ***    ***


----------------------------------------------------------------------------|
----------------------------------------------------------------------------|
----------------------------------------------------------------------------|
----------------------------------------------------------------------------|
----------------------------------------------------------------------------|
-1313131313131313-0-0-0---1313131313131313-0-0-0---000-13-000-13-000-13-----|
  * * * * * * * *       |  * * * * * * * *       | ***    ***    ***


----------------------------------------------------------------------------|
----------------------------------------------------------------------------|
----------------------------------------------------------------------------|
----------------------------------------------------------------------------|
----------------------------------------------------------------------------|
-1313131313131313-0-0-0---1313131313131313-0-0-0---000-13-000-13-000-13-----|
  * * * * * * * *       |  * * * * * * * *       | ***    ***    ***


----------------------------------------------------------------------------|
----------------------------------------------------------------------------|
----------------------------------------------------------------------------|
----------------------------------------------------------------------------|
----------------------------------------------------------------------------|
-1313131313131313-0-0-0---1313131313131313-0-0-0---000-13-000-13-000-13-----|
  * * * * * * * *       |  * * * * * * * *       | ***    ***    ***


----------------------------------------------------------------------------|
----------------------------------------------------------------------------|
----------------------------------------------------------------------------|
----------------------------------------------------------------------------|
----------------------------------------------------------------------------|
-1313131313131313-0-0-0---1313131313131313-0-0-0---000-13-000-13-000-13-----|
  * * * * * * * *       |  * * * * * * * *       | ***    ***    ***







5:06




1
-----------------------------------------------------------------------|
-----------------------------------------------------------------------|
-------14-14-14-14-14-14-14-14------------14-14-14-14-14-14-14-14------|
--------x--x--x--x--x--x--x--x-------------x--x--x--x--x--x--x--x------|
-4--4--12-12-12-12-12-12-12-12--0-0-4--4--12-12-12-12-12-12-12-12--0-0-|
-4--4---------------------------0-0-4--4---------------------------0-0-|

2
-----------------------------------------------------------------------|
-----------------------------------------------------------------------|
-----------------------------------------------------------------------|
-----------------------------------------------------------------------|
-4--4---------------------------0-0-4--4--------------------------0-0--|
-4--4---7--7--7--7--7--7--7--7--0-0-4--4--7--7--7--7--7--7--7--7--0-0--|

1
----------------------------------------------------------------------|
----------------------------------------------------------------------|
-------13-13-13-13-13-13-13-13-------------13-13-13-11-11-11-11-------|
--------x--x--x--x--x--x--x--x--------------x--x--x--x--x--x--x-------|
-2--2--11-11-11-11-11-11-11-11--0-0-2--2---11-11-11--9--9--9--9--0-0--|
-2--2---------------------------0-0-2--2-------------------------0-0--|

2
--------------------------------------------------------------------|
--------------------------------------------------------------------|
--------------------------------------------------------------------|
--------------------------------------------------------------------|
-2--2--------------------------0-0-2--2------------------------0-0--|
-2--2--6--6--6--6--6--6--6--6--0-0-2--2--6--6--6---4--4--4--4--0-0--|



1
-----------------------------------------------------------------------|
-----------------------------------------------------------------------|
-------14-14-14-14-14-14-14-14------------14-14-14-14-14-14-14-14------|
--------x--x--x--x--x--x--x--x-------------x--x--x--x--x--x--x--x------|
-4--4--12-12-12-12-12-12-12-12--0-0-4--4--12-12-12-12-12-12-12-12--0-0-|
-4--4---------------------------0-0-4--4---------------------------0-0-|

2
-----------------------------------------------------------------------|
-----------------------------------------------------------------------|
-----------------------------------------------------------------------|
-----------------------------------------------------------------------|
-4--4---------------------------0-0-4--4--------------------------0-0--|
-4--4---7--7--7--7--7--7--7--7--0-0-4--4--7--7--7--7--7--7--7--7--0-0--|

1
----------------------------------------------------------------------|
----------------------------------------------------------------------|
-------13-13-13-13-13-13-13-13-------------13-13-13-11-11-11-11-------|
--------x--x--x--x--x--x--x--x--------------x--x--x--x--x--x--x-------|
-2--2--11-11-11-11-11-11-11-11--0-0-2--2---11-11-11--9--9--9--9--0-0--|
-2--2---------------------------0-0-2--2-------------------------0-0--|

2
--------------------------------------------------------------------|
--------------------------------------------------------------------|
--------------------------------------------------------------------|
--------------------------------------------------------------------|
-2--2--------------------------0-0-2--2------------------------0-0--|
-2--2--6--6--6--6--6--6--6--6--0-0-2--2--6--6--6---4--4--4--4--0-0--|







1
-------------------------------------------------------------------------|
-------------------------------------------------------------------------|
--------14-14-14-14-14-14-14-14-------------14-14-14-14-14-14-14-14------|
---------x--x--x--x--x--x--x--x--------------x--x--x--x--x--x--x--x------|
-4--4-4-12-12-12-12-12-12-12-12--0-0-4--4-4-12-12-12-12-12-12-12-12--0-0-|
-4--4-4--------------------------0-0-4--4-4--------------------------0-0-|

2
--------------------------------------------------------------------------|
--------------------------------------------------------------------------|
---------18-18-18-18-18-18-18-18-------------18-18-18-18-18-18-18-18------|
----------x--x--x--x--x--x--x--x--------------x--x--x--x--x--x--x--x------|
-4--4--4-16-16-16-16-16-16-16-16--0-0-4--4-4-16-16-16-16-16-16-16-16--0-0-|
-4--4--4--------------------------0-0-4--4-4--------------------------0-0-|

1
-----------------------------------------------------------------------|
-----------------------------------------------------------------------|
--------13-13-13-13-13-13-13-13-------------13-13-13-11-11-11-11-------|
---------x--x--x--x--x--x--x--x--------------x--x--x--x--x--x--x-------|
-2--2-2-11-11-11-11-11-11-11-11--0-0-2--2-2-11-11-11--9--9--9--9--0-0--|
-2--2-2--------------------------0-0-2--2-2-----------------------0-0--|

2
-----------------------------------------------------------------------|
-----------------------------------------------------------------------|
--------16-16-16-16-16-16-16-16-------------16-16-16-14-14-14-14-------|
---------x--x--x--x--x--x--x--x--------------x--x--x--x--x--x--x-------|
-2--2-2-14-14-14-14-14-14-14-14--0-0-2--2-2-14-14-14-12-12-12-12--0-0--|
-2--2-2--------------------------0-0-2--2-2-----------------------0-0--|




1
-------------------------------------------------------------------------|
-------------------------------------------------------------------------|
--------14-14-14-14-14-14-14-14-------------14-14-14-14-14-14-14-14------|
---------x--x--x--x--x--x--x--x--------------x--x--x--x--x--x--x--x------|
-4--4-4-12-12-12-12-12-12-12-12--0-0-4--4-4-12-12-12-12-12-12-12-12--0-0-|
-4--4-4--------------------------0-0-4--4-4--------------------------0-0-|

2
--------------------------------------------------------------------------|
--------------------------------------------------------------------------|
---------18-18-18-18-18-18-18-18-------------18-18-18-18-18-18-18-18------|
----------x--x--x--x--x--x--x--x--------------x--x--x--x--x--x--x--x------|
-4--4--4-16-16-16-16-16-16-16-16--0-0-4--4-4-16-16-16-16-16-16-16-16--0-0-|
-4--4--4--------------------------0-0-4--4-4--------------------------0-0-|

1
-----------------------------------------------------------------------|
-----------------------------------------------------------------------|
--------13-13-13-13-13-13-13-13-------------13-13-13-11-11-11-11-------|
---------x--x--x--x--x--x--x--x--------------x--x--x--x--x--x--x-------|
-2--2-2-11-11-11-11-11-11-11-11--0-0-2--2-2-11-11-11--9--9--9--9--0-0--|
-2--2-2--------------------------0-0-2--2-2-----------------------0-0--|

2
-----------------------------------------------------------------------|
-----------------------------------------------------------------------|
--------16-16-16-16-16-16-16-16-------------16-16-16-14-14-14-14-------|
---------x--x--x--x--x--x--x--x--------------x--x--x--x--x--x--x-------|
-2--2-2-14-14-14-14-14-14-14-14--0-0-2--2-2-14-14-14-12-12-12-12--0-0--|
-2--2-2--------------------------0-0-2--2-2-----------------------0-0--|








1
----------------------------------------------------------------|
----------------------------------------------------------------|
---------14-14-14-14-14-14-14-----------14-14-14-14-14-14-14----|
----------x--x--x--x--x--x--x------------x--x--x--x--x--x--x----|
-4--4-4--12-12-12-12-12-12-12\--4--4-4--12-12-12-12-12-12-12\---|
-4--4-4-------------------------4--4-4--------------------------|

2
---------------------------------------------------------------|
---------------------------------------------------------------|
---------18-18-18-18-18-18-18-----------18-18-18-18-18-18-18---|
----------x--x--x--x--x--x--x------------x--x--x--x--x--x--x---|
-4--4-4--16-16-16-16-16-16-16\--4--4-4--16-16-16-16-16-16-16\--|
-4--4-4-------------------------4--4-4-------------------------|

1
---------------------------------------------------------------|
---------------------------------------------------------------|
---------13-13-13-13-13-13-13-----------13-13-13-11-11-11-11---|
----------x--x--x--x--x--x--x------------x--x--x--x--x--x--X---|
-2--2-2--11-11-11-11-11-11-11\--2--2-2--11-11-11--9--9--9--9\--|
-2--2-2-------------------------2--2-2-------------------------|

2
--------------------------------------------------------------|
--------------------------------------------------------------|
---------16-16-16-16-16-16-16-----------16-16-16-14-14-14-14--|
----------x--x--x--x--x--x--x------------x--x--x--x--x--x--x--|
-2--2-2--14-14-14-14-14-14-14\--2--2-2--14-14-14-12-12-12-12\-|
-2--2-2-------------------------2--2-2------------------------|





1
----------------------------------------------------------------|
----------------------------------------------------------------|
---------14-14-14-14-14-14-14-----------14-14-14-14-14-14-14----|
----------x--x--x--x--x--x--x------------x--x--x--x--x--x--x----|
-4--4-4--12-12-12-12-12-12-12\--4--4-4--12-12-12-12-12-12-12\---|
-4--4-4-------------------------4--4-4--------------------------|

2
---------------------------------------------------------------|
---------------------------------------------------------------|
---------18-18-18-18-18-18-18-----------18-18-18-18-18-18-18---|
----------x--x--x--x--x--x--x------------x--x--x--x--x--x--x---|
-4--4-4--16-16-16-16-16-16-16\--4--4-4--16-16-16-16-16-16-16\--|
-4--4-4-------------------------4--4-4-------------------------|

1
---------------------------------------------------------------|
---------------------------------------------------------------|
---------13-13-13-13-13-13-13-----------13-13-13-11-11-11-11---|
----------x--x--x--x--x--x--x------------x--x--x--x--x--x--X---|
-2--2-2--11-11-11-11-11-11-11\--2--2-2--11-11-11--9--9--9--9\--|
-2--2-2-------------------------2--2-2-------------------------|

2
--------------------------------------------------------------|
--------------------------------------------------------------|
---------16-16-16-16-16-16-16-----------16-16-16-14-14-14-14--|
----------x--x--x--x--x--x--x------------x--x--x--x--x--x--x--|
-2--2-2--14-14-14-14-14-14-14\--2--2-2--14-14-14-12-12-12-12\-|
-2--2-2-------------------------2--2-2------------------------|






5:50



---------------------------------------------------------------------------------------|
---------------------------------------------------------------------------------------|
---------------------------------------------------------------------------------------|
---------------------------------------------------------------------------------------|
---------------------------------------------------------------------------------------|
-0-10-13-12-10-12-0-10-13-12-10-12-0-10-13-12-10-12-0-10-13-12-10-12-0-8-10-8-0-8-10-8-|


---------------------------------------------------------------------------------------|
---------------------------------------------------------------------------------------|
---------------------------------------------------------------------------------------|
---------------------------------------------------------------------------------------|
---------------------------------------------------------------------------------------|
-0-10-13-12-10-12-0-10-13-12-10-12-0-10-13-12-10-12-0-10-13-12-10-12-0-8-10-8-0-8-10-8-|


---------------------------------------------------------------------------------------|
---------------------------------------------------------------------------------------|
---------------------------------------------------------------------------------------|
---------------------------------------------------------------------------------------|
---------------------------------------------------------------------------------------|
-0-10-13-12-10-12-0-10-13-12-10-12-0-10-13-12-10-12-0-10-13-12-10-12-0-8-10-8-0-8-10-8-|


---------------------------------------------------------------------------------------|
---------------------------------------------------------------------------------------|
---------------------------------------------------------------------------------------|
---------------------------------------------------------------------------------------|
---------------------------------------------------------------------------------------|
-0-10-13-12-10-12-0-10-13-12-10-12-0-10-13-12-10-12-0-10-13-12-10-12-0-8-10-8-0-8-10-8-|




---------------------------------|
---------------------------------|
---------------------------------|
---------------------------------|
---6-------------6---3--6--3-----|
-0-6--0-6--5~--0-6-0-3--6--3-----|
 *    *        *   *                     
Submit corrections

↑ Back to top | Tablatures and chords for acoustic guitar and electric guitar, ukulele, drums are parodies/interpretations of the original songs. You may use it for private study, scholarship, research or language learning purposes only