Home » D » Devildriver »

Devildriver - These Fighting Words Tabs

Artists:  A B C D E F G H I J K L M N O P Q R S T U V W X Y Z # 

These Fighting Words Tabs

(ver. 1) Click to play this song!
Devildriver
 Rating:
4/5 (4 votes)
                Intro:
d|---------------------------------------------------------------------|
a|---------------------------------------------------------------------|
f|---------------------------------------------------------------------|
c|0--3--2--------------------------------------------------------------|
g|0--------3-----------------------------------------------------------|
c|0--------------------------------------------------------------------|

d|---------------------------------------------------------------------|
a|---------------------------------------------------------------------|
f|---------------------------------------------------------------------|
c|---------------------------------------------------------------------|
g|0-0-0000-0-0-0000-0-0-000000000000-----------------------------------|
c|0-0-0000-0-0-0000-0-0-000000000000-----------------------------------|
pm..................................

:32 seconds in, Listen to the song for strumming pattern.
d|---------------------------------------------------------------------|
a|---------------------------------------------------------------------|
f|7---9--10---12---9---7---9--10--12---6-------------------------------|
c|x---x---x----x---x---x---x---x---x---x-------------------------------|
g|5---7---8---10---7---5---7---8--10---4-------------------------------|
c|---------------------------------------------------------------------|

Guitar 2
d|-----------------------------------------------------------------------------------|
a|-----------------------------------------------------------------------------------|
f|-----------------------------------------------------------------------------------|
c|-----------------------------------------------------------------------------------|
g|0-0-0000-0-0-0000-8-8-888888888888-10-10-10101010-10-10-10101010-7-7-777777777777--|
c|0-0-0000-0-0-0000-8-8-888888888888-10-10-10101010-10-10-10101010-7-7-777777777777--|
pm.................................................................................

:Bridge thingy 42 seconds
d|-------------------------------------------------------------------------|
a|-------------------------------------------------------------------------|
f|-------------------------------------------------------------------------|
c|-------------------------------------------------------------2-----2-----|
g|----5---8-----7-----8---7----10--7-----5---8---4---7------------3-----3--|
c|000---0---000---000---0---0--------000---0---0---0----00-0-0-------------|
pm...   .   ...   ...   .   .        ...   .   .   .    .. . .
Guitar 2
d|-------------------------------------------------------------------------|
a|-------------------------------------------------------------------------|
f|--------------------------------------------------------------9-----9----|
c|----------------------------------------------------------------10----10-|
g|----5---8-----7-----8---7----10--7-----5---8---4---7---------------------|
c|000---0---000---000---0---0--------000---0---0---0----00-0-0-------------|
pm...   .   ...   ...   .   .        ...   .   .   .    .. . .

d|------------------------------------------------|
a|------------------------------------------------|
f|------------------------------------------------|
c|------------------------------------------------|
g|0-0-000-0-0-000---------------------------------|
c|0-0-000-0-0-000-1/6-6/7-7-10/-------------------|

Verse:4X
d|--------------------------------------|
a|--------------------------------------|
f|--------------------------------------|
c|6666/---------------------------------|
g|6666/-0-0-000-0-0-000-0-0-000---------|
c|6666/-0-0-000-0-0-000-0-0-000---------|
 pm.    . . ... . . ... . . ...

Then:
d|--------------------------------------|
a|--------------------------------------|
f|--------------------------------------|
c|--------------------------------------|
g|--------------------------------------|
c|8888888877777777----------------------|

PreChorus:2X
d|----------------------------------------------------------------------|
a|----------------------------------------------------------------------|
f|----------------------------------------------------------------------|
c|----------------------------------------------------------------------|
g|0-0-0-0-0-0-0-0-8-8-8-8-8-8-8-8-3-3-3-3-3-3-3-3-5-5-5-5-7-7-7-7-------|
c|0-0-0-0-0-0-0-0-8-8-8-8-8-8-8-8-3-3-3-3-3-3-3-3-5-5-5-5-7-7-7-7-------|
pm...............................................................
Guitar 2
d|----------------------------------------------------------------------|
a|----------------------------------------------------------------------|
f|7------10-------9-------10------10--------------9---------------------|
c|----------------------------------------------------------------------|
g|----------------------------------------------------------------------|
c|----------------------------------------------------------------------|

Chorus:Strumming pattern differs from the intro
d|---------------------------------------------|
a|---------------------------------------------|
f|7---9--10---12---9---7---9--10--12---6-------|
c|x---x---x----x---x---x---x---x---x---x-------|
g|5---7---8---10---7---5---7---8--10---4-------|
c|---------------------------------------------|

Thats basically it aside from the solo which I don't know enjoy.
            
Submit corrections

↑ Back to top | Tablatures and chords for acoustic guitar and electric guitar, ukulele, drums are parodies/interpretations of the original songs. You may use it for private study, scholarship, research or language learning purposes only