» » »

Desperation Band - I Am Free Tabs

Artists:  A B C D E F G H I J K L M N O P Q R S T U V W X Y Z # 

I Am Free Tabs

(ver. 3) Click to play this song!
Desperation Band
 Rating:
4/5 (4 votes)

 I Am Free lessons Tabs too difficult? Try these video lessons and learn fast
 
                (Intro)
INTRO
e----------------------------------|
B-10-10-10-8-8-8-7-7-7-8-8-7-7-8-8-|
G-7--7--7--7-7-7-7-7-7-7-7-7-7-7-7-|
D----------------------------------|X2
A----------------------------------|
E----------------------------------|

e----------------------------------|
B-8-8-8-7-7-7-7-7-7-7-7-7----------|
G-7-7-7-7-7-7-9-9-9-7-7-7-----7----|
D-------------------------7-9------|X2
A----------------------------------|
E----------------------------------|

e------------------|
B-7h8-8-8-8p7-7-7--|
G-7---7-7-7---7-7--|
D------------------|
A------------------|
E------------------|

e----------------------|
B-8h10-10-10-10p8-8-8--|
G-7----7--7--7----7-7--|
D----------------------|X2
A----------------------|
E----------------------|

Good Luck This is how my worship band plays it!

God Bless
            
Submit corrections


        I Am Free lessons Hard to play? Try these video lessons and learn fast I Am Free lessons
        
↑ Back to top | Tablatures and chords for acoustic guitar and electric guitar, ukulele, drums are parodies/interpretations of the original songs. You may use it for private study, scholarship, research or language learning purposes only