Home » D » Desperation »

Desperation - Promises Tabs

Artists:  A B C D E F G H I J K L M N O P Q R S T U V W X Y Z # 

Promises Tabs

(ver. 1) Click to play this song!
Desperation
Intro: strum
-----------------|
-----------------|
-----------------|
--4--5--7--5--4--|
--5--5--5--5--5--|
-----------------|

Verse: Strum refer to the vid
-------------------|
-------------------|
-------------------|
-7--------7----5---|
-5-7-9-5--5-7--5---|
---5-7-3----5--3---|

Followed by Lead guitar:
----------------------|
----------------------|
-"9-7-6-4-12-7-6"--5--|
-------------------3--|
-------------------3--|
----------------------|
Repeat the notes inside "" several times

Pre-Chorus:
-------2--|
-3--2--3--|
-2--2--2--|
-4--2-----|
----------|
----------|
Bm A D

Chorus: (Power Chords)

D A Bm G
            
Submit corrections

↑ Back to top | Tablatures and chords for acoustic guitar and electric guitar, ukulele, drums are parodies/interpretations of the original songs. You may use it for private study, scholarship, research or language learning purposes only