Home » D » Desert Sessions »

Desert Sessions - A Girl Like Me Tabs

Artists:  A B C D E F G H I J K L M N O P Q R S T U V W X Y Z # 

A Girl Like Me Tabs

(ver. 2) Click to play this song!
Desert Sessions
-------------------------------------------------------------------------------
           			     A GIRL LIKE ME - Desert Sessions 9&10
-------------------------------------------------------------------------------


Tuning: Standard tuning EADGBe


Structure :			
		             Part	      	
	INTRO	    2X  A			
	VERSE 1	  3X  A
	CHORUS
	VERSE 2	  4X  A					
	CHORUS
	VERSE 3	  4X  A
	BRIDGE	  10X  B
	VERSE 4	  4X  A
	OUTRO


PART A

  Cm	     Cm7	      Cm	    Cm7	      B(#5)   Bmaj7     B(#5)   Bmaj7
|-----------------|-----------------|-----------------|-----------------|
|-----------------|-----------------|-----------------|-----------------|
|-----0---3---3---|-----0---3---3---|-----0---3---3---|-----0---3---3---|
|---1---1---1---1-|---1---1---1---1-|---1---1---1---1-|---1---1---1---1-|
|-3---------------|-3---------------|-2---------------|-2---------------|
|-----------------|-----------------|-----------------|-----------------|



PART B

  #C(b5)  #C7(b5)   #C7(b5)
|-----------------|-----------------|
|---------0-------|-2-----0-----2---|
|-----0-----0---0-|---0-------4---4-|
|---3---3-----3---|-----3---3-------|
|-4---------------|-----------------|
|-----------------|-----------------|



CHORUS

  #C(b5)  #C7(b5)   #C7(b5)	         Cm      Cm7       Cm      Cm7
|-----------------|-----------------|-----------------|-----------------|
|---------0-------|-2-----0-----2---|-----------------|-----------------|
|-----0-----0---0-|---0-------4---4-|-----0---3---3---|-----0---3---3---|
|---3---3-----3---|-----3---3-------|---1---1---1---1-|---1---1---1---1-|
|-4---------------|-----------------|-3---------------|-3---------------|
|-----------------|-----------------|-----------------|-----------------|
         	It took a girl like me 		      to bring you to your knees


  #C(b5)  #C7(b5)   #C7(b5)
|-----------------|-----------------||
|---------0-------|-2-----0-----2---||
|-----0-----0---0-|---0-------4---4-||
|---3---3-----3---|-----3---3-------||
|-4---------------|-----------------||
|-----------------|-----------------||
         	It took a girl like me		     1st CHORUS
         	You take a girl like me    	2nd & 3rd CHORUS



OUTRO

|------------------|------------------|------------------|------------------|
|----------0-------|--2-----0-----0---|------------------|------------------|
|------0-----0---0-|----4-----0-----0-|------0---3---3---|------0---3---3---|
|----3---3-----3---|------3-----3-----|----1---1---1---1-|----1---1---1---1-|
|--4---------------|------------------|--3---------------|--3---------------|
|------------------|------------------|------------------|------------------|
         	It took a girl like me 			to bring you to your knees

|------------------|------------------|------------------|------------------||
|----------0-----0-|--2-----0-----0---|------------------|------------------||
|------0-----0---0-|----0-----0-----0-|------0---3---3---|------0---3---3---||
|----3---3-----3---|------3-----3-----|----1---1---1---1-|----1---1-1---1---||
|--4---------------|------------------|--3---------------|--3---------------||
|------------------|------------------|------------------|------------------||
         	You took a girl like me						    

________________________________________________________________________________


VERSE 1
	Hot skin in the night in the hour when the animals are born
	crimes of passion are committed 
	take me to the morning light take me to your leader

VERSE 2
	You are my heart you are my only heart
	but this cold air is killing me 
	and as we make love the silence the silence 
	trying to find the thread of a failed romance

VERSE 3
	I strain my face towards the sky, you put your hand 
	over my mouth oh take me,
	take me to the frozen North, skating, falling falling down down down
	into icy water 

BRIDGE
	I'll be what you want me to be to bring you to your knees
	your lover, your daughter, we move in slow motion
	falling down down down into icy water you took a girl like me

VERSE 4
	I might never leave this room again
	shut myself inside the old photographs
	faded light of a young girl, 
	patterns, shadows on the walls, painted ladies
	They look a lot like me
            
Submit corrections

↑ Back to top | Tablatures and chords for acoustic guitar and electric guitar, ukulele, drums are parodies/interpretations of the original songs. You may use it for private study, scholarship, research or language learning purposes only