» » »

Descendents - Without Love Tabs

Artists:  A B C D E F G H I J K L M N O P Q R S T U V W X Y Z # 

Without Love Tabs

(ver. 1) Click to play this song!
Descendents
 Rating:
4.3/5 (16 votes)

 Without Love  lessons Tabs too difficult? Try these video lessons and learn fast
 
                [Intro Riff]

e|---------------|-------------------|-4--4--4-4-4-4-|-4-4-4-4--4----|
B|---------------|----------10--10---|-5--5--5-5-5-5-|-5-5-5-5--5----|
G|---------------|-----------9---9---|-6--6--6-6-6-6-|-7-7-7-6--4----|
D|-7--7--7-9--11-|-(11)-11--11--11---|-6--6--6-6-6-6-|-6-6-6-6--6----|
A|-0--0--0-0---0-|--(0)--0---0---0---|-4--4--4-4-4-4-|-4-4-4-4--4----|
E|---------------|-------------------|---------------|---------------|


e|---------------|-----------------|-------------|------------|
B|---------------|-----------------|-------------|------------|
G|-9--9--9--7--9-|-(9)--9--9--9--7-|-9--9--9--7--|-7-7-7-6-4--|
D|-0--0--0--0--0-|-(0)--0--0--0--0-|-9--9--9--9--|-0-0-0-0-0--|
A|---------------|-----------------|-9--9--9--9--|------------|
E|---------------|-----------------|-7--7--7--7--|------------|


[Verse]

e|------------|--------------|
B|----5--5----|--------------|
G|----6--6----|------9--9-9--|
D|----6--6----|-7-7--9--9-9--|
A|-4--4--4----|-7-7--7--7-7--|
E|------------|-5-5----------|


e|---------------|---------------|
B|---------------|---------------|
G|-8--8-8--8-8-8-|-6--6-6--6-6-6-|
D|-9--9-9--9-9-9-|-7--7-7--7-7-7-|
A|-9--9-9--9-9-9-|-7--7-7--7-7-7-|
E|-7--7-7--7-7-7-|-5--5-5--5-5-5-|


[Pre-Chorus]

e|-----------------|-----------------|-----------------|---------------|
B|-----------------|-5-5-5-5-5-5-5-5-|-----------------|---------------|
G|-4-4-4-4-4-4-4-4-|-6-6-6-6-6-6-6-6-|-6-6-6-6-6-6-6-6-|-9-9-9---------|
D|-6-6-6-6-6-6-6-6-|-6-6-6-6-6-6-6-6-|-7-7-7-7-7-7-7-7-|-9-9-9-9--9-9--|
A|-6-6-6-6-6-6-6-6-|-4-4-4-4-4-4-4-4-|-7-7-7-7-7-7-7-7-|-7-7-7-9--9-9--|
E|-4-4-4-4-4-4-4-4-|-----------------|-5-5-5-5-5-5-5-5-|-------7--7-7--|


e|-------------------------|-------------------------|-----------------|-----------------|
B|-10-10-10-10-10-10-10-10-|-10-10-10-10-10-10-10-10-|-----------------|-----------------|
G|-11-11-11-11-11-11-11-11-|-11-11-11-11-11-11-11-11-|-9-9-9-9-9-9-9-9-|-9-9-9-9-9-9-9-9-|
D|-11-11-11-11-11-11-11-11-|-11-11-11-11-11-11-11-11-|-9-9-9-9-9-9-9-9-|-9-9-9-9-9-9-9-9-|
A|--9--9--9--9--9--9--9--9-|--9--9--9--9--9--9--9--9-|-7-7-7-7-7-7-7-7-|-7-7-7-7-7-7-7-7-|
E|-------------------------|-------------------------|-----------------|-----------------|


[Chorus]

e|---------------|-----------------|---------------|-----------------|
B|---------------|-----------------|---------------|-----------------|
G|---------------|-----------------|---------------|-----------------|
D|-7--7--7-7-7-7-|-7-7-7-7-7-7-7-7-|-6--6--6-6-6-6-|-6-6-6-6-6-6-6-6-|
A|-0--0--0-0-0-0-|-0-0-0-0-0-0-0-0-|-7--7--7-7-7-7-|-7-7-7-7-7-7-7-7-|
E|---------------|-----------------|-0--0--0-0-0-0-|-0-0-0-0-0-0-0-0-|


e|-----------------|-----------------|---------------|-------------------|
B|-3-3-3-3-3-3-3-3-|-3-3-3-3-3-3-3-3-|-3--3--3-3-3-3-|-(3)-3-3-3-3-3-3-3-|
G|-2-2-2-2-2-2-2-2-|-2-2-2-2-2-2-2-2-|-4--4--4-4-4-2-|-(2)-2-2-2-2-2-2-2-|
D|-0-0-0-0-0-0-0-0-|-0-0-0-0-0-0-0-0-|-4--4--4-4-4-0-|-(0)-0-0-0-0-0-0-0-|
A|-----------------|-----------------|-2--2--2-2-2---|-------------------|
E|-----------------|-----------------|---------------|-------------------|


[Intro Riff]

e|---------------|-------------------|-4--4--4-4-4-4-|-4-4-4-4--4----|
B|---------------|----------10--10---|-5--5--5-5-5-5-|-5-5-5-5--5----|
G|---------------|-----------9---9---|-6--6--6-6-6-6-|-7-7-7-6--4----|
D|-7--7--7-9--11-|-(11)-11--11--11---|-6--6--6-6-6-6-|-6-6-6-6--6----|
A|-0--0--0-0---0-|--(0)--0---0---0---|-4--4--4-4-4-4-|-4-4-4-4--4----|
E|---------------|-------------------|---------------|---------------|


e|---------------|-----------------|-------------|------------|
B|---------------|-----------------|-------------|------------|
G|-9--9--9--7--9-|-(9)--9--9--9--7-|-9--9--9--7--|-7-7-7-6-4--|
D|-0--0--0--0--0-|-(0)--0--0--0--0-|-9--9--9--9--|-0-0-0-0-0--|
A|---------------|-----------------|-9--9--9--9--|------------|
E|---------------|-----------------|-7--7--7--7--|------------|


[Verse]

e|------------|--------------|
B|----5--5----|--------------|
G|----6--6----|------9--9-9--|
D|----6--6----|-7-7--9--9-9--|
A|-4--4--4----|-7-7--7--7-7--|
E|------------|-5-5----------|


e|---------------|---------------|
B|---------------|---------------|
G|-8--8-8--8-8-8-|-6--6-6--6-6-6-|
D|-9--9-9--9-9-9-|-7--7-7--7-7-7-|
A|-9--9-9--9-9-9-|-7--7-7--7-7-7-|
E|-7--7-7--7-7-7-|-5--5-5--5-5-5-|


[Pre-Chorus]

e|-----------------|-----------------|-----------------|---------------|
B|-----------------|-5-5-5-5-5-5-5-5-|-----------------|---------------|
G|-4-4-4-4-4-4-4-4-|-6-6-6-6-6-6-6-6-|-6-6-6-6-6-6-6-6-|-9-9-9---------|
D|-6-6-6-6-6-6-6-6-|-6-6-6-6-6-6-6-6-|-7-7-7-7-7-7-7-7-|-9-9-9-9--9-9--|
A|-6-6-6-6-6-6-6-6-|-4-4-4-4-4-4-4-4-|-7-7-7-7-7-7-7-7-|-7-7-7-9--9-9--|
E|-4-4-4-4-4-4-4-4-|-----------------|-5-5-5-5-5-5-5-5-|-------7--7-7--|


e|-------------------------|-------------------------|-----------------|-----------------|
B|-10-10-10-10-10-10-10-10-|-10-10-10-10-10-10-10-10-|-----------------|-----------------|
G|-11-11-11-11-11-11-11-11-|-11-11-11-11-11-11-11-11-|-9-9-9-9-9-9-9-9-|-9-9-9-9-9-9-9-9-|
D|-11-11-11-11-11-11-11-11-|-11-11-11-11-11-11-11-11-|-9-9-9-9-9-9-9-9-|-9-9-9-9-9-9-9-9-|
A|--9--9--9--9--9--9--9--9-|--9--9--9--9--9--9--9--9-|-7-7-7-7-7-7-7-7-|-7-7-7-7-7-7-7-7-|
E|-------------------------|-------------------------|-----------------|-----------------|


[Chorus]

e|---------------|-----------------|---------------|-----------------|
B|---------------|-----------------|---------------|-----------------|
G|---------------|-----------------|---------------|-----------------|
D|-7--7--7-7-7-7-|-7-7-7-7-7-7-7-7-|-6--6--6-6-6-6-|-6-6-6-6-6-6-6-6-|
A|-0--0--0-0-0-0-|-0-0-0-0-0-0-0-0-|-7--7--7-7-7-7-|-7-7-7-7-7-7-7-7-|
E|---------------|-----------------|-0--0--0-0-0-0-|-0-0-0-0-0-0-0-0-|


e|-----------------|-----------------|---------------|-------------------|
B|-3-3-3-3-3-3-3-3-|-3-3-3-3-3-3-3-3-|-3--3--3-3-3-3-|-(3)-3-3-3-3-3-3-3-|
G|-2-2-2-2-2-2-2-2-|-2-2-2-2-2-2-2-2-|-4--4--4-4-4-2-|-(2)-2-2-2-2-2-2-2-|
D|-0-0-0-0-0-0-0-0-|-0-0-0-0-0-0-0-0-|-4--4--4-4-4-0-|-(0)-0-0-0-0-0-0-0-|
A|-----------------|-----------------|-2--2--2-2-2---|-------------------|
E|-----------------|-----------------|---------------|-------------------|


[Bridge]

e|-----------------|-------------|-----------------|--------------|
B|-----------------|-------------|-----------------|--------------|
G|-6-6-6-6-6-6-6-6-|-6-9---------|-----------------|---2----4--4--|
D|-6-6-6-6-6-6-6-6-|-6-9----9----|-4-4-4-4-4-4-4-4-|-4-2----4--4--|
A|-4-4-4-4-4-4-4-4-|-4-7----9----|-4-4-4-4-4-4-4-4-|-4-0--0-2--2--|
E|-----------------|------x-7----|-2-2-2-2-2-2-2-2-|-2------------|


e|-----------------|-------------|-----------------|-----------------|
B|-----------------|-------------|-----------------|-----------------|
G|-6-6-6-6-6-6-6-6-|-6-9---------|-----------------|-2-2-2-4-4-4-4-4-|
D|-6-6-6-6-6-6-6-6-|-6-9----9----|-4-4-4-4-4-4-4-4-|-2-2-2-4-4-4-4-4-|
A|-4-4-4-4-4-4-4-4-|-4-7----9----|-4-4-4-4-4-4-4-4-|-0-0-0-2-2-2-2-2-|
E|-----------------|------x-7----|-2-2-2-2-2-2-2-2-|-----------------|


e|-----------------|-----------------|-----------------|--------------|
B|-----------------|-5-5-5-5-5-5-5-5-|-----------------|--------------|
G|-4-4-4-4-4-4-4-4-|-6-6-6-6-6-6-6-6-|-6-6-6-6-6-6-6-6-|-9-9----------|
D|-6-6-6-6-6-6-6-6-|-6-6-6-6-6-6-6-6-|-7-7-7-7-7-7-7-7-|-9-9---9--9---|
A|-6-6-6-6-6-6-6-6-|-4-4-4-4-4-4-4-4-|-7-7-7-7-7-7-7-7-|-7-7---9--9---|
E|-4-4-4-4-4-4-4-4-|-----------------|-5-5-5-5-5-5-5-5-|-----7-7--7---|


e|-----------------|-----------------|-----------------|-----------------|
B|-----------------|-----------------|-----------------|-----------------|
G|-6-6-6-6-6-6-6-6-|-6-6-6-6-6-6-6-6-|-----------------|-----------------|
D|-7-7-7-7-7-7-7-7-|-7-7-7-7-7-7-7-7-|-9-9-9-9-9-9-9-9-|-9-9-9-9-9-9-9-9-|
A|-7-7-7-7-7-7-7-7-|-7-7-7-7-7-7-7-7-|-7-7-7-7-7-7-7-7-|-7-7-7-7-7-7-7-7-|
E|-5-5-5-5-5-5-5-5-|-5-5-5-5-5-5-5-5-|-5-5-5-5-5-5-5-5-|-5-5-5-5-5-5-5-5-|


[Final Chorus]

e|----------|------------|----------|--------|
B|----------|------------|----------|--------|
G|-6--------|-(6)--------|-1--------|-(1)----|
D|-7--------|-(7)--------|-2--------|-(2)----|
A|-7--------|-(7)--------|-2--------|-(2)----|
E|-5--------|-(5)--------|-0--------|-(0)----|


e|-----------------|-----------------|-----------------|-------------------|
B|-----------------|-----------------|-----------------|-------------------|
G|-----------------|-----------------|-4-4-4-4-4-4-4-7-|-(7)-7-7-7-7-7-7-7-|
D|-7-7-7-7-7-7-7-7-|-7-7-7-7-7-7-7-7-|-4-4-4-4-4-4-4-7-|-(7)-7-7-7-7-7-7-7-|
A|-5-5-5-5-5-5-5-5-|-5-5-5-5-5-5-5-5-|-2-2-2-2-2-2-2-5-|-(5)-5-5-5-5-5-5-5-|
E|-----------------|-----------------|-----------------|-------------------|


e|-----------------|-----------------|-----------------|-----------------|
B|-----------------|-----------------|-----------------|-----------------|
G|-6-6-6-6-6-6-6-6-|-6-6-6-6-6-6-6-6-|-9-9-9-9-9-9-9-9-|-9-9-9-9-9-9-9-9-|
D|-7-7-7-7-7-7-7-7-|-7-7-7-7-7-7-7-7-|-9-9-9-9-9-9-9-9-|-9-9-9-9-9-9-9-9-|
A|-7-7-7-7-7-7-7-7-|-7-7-7-7-7-7-7-7-|-7-7-7-7-7-7-7-7-|-7-7-7-7-7-7-7-7-|
E|-5-5-5-5-5-5-5-5-|-5-5-5-5-5-5-5-5-|-0-0-0-0-0-0-0-0-|-0-0-0-0-0-0-0-0-|


e|-----------------|-----------------|-----------------|-------------------|
B|-----------------|-----------------|-----------------|-------------------|
G|-7-7-7-7-7-7-7-7-|-7-7-7-7-7-7-7-7-|-4-4-4-4-4-4-4-7-|-(7)-7-7-7-7-7-7-7-|
D|-7-7-7-7-7-7-7-7-|-7-7-7-7-7-7-7-7-|-4-4-4-4-4-4-4-7-|-(7)-7-7-7-7-7-7-7-|
A|-5-5-5-5-5-5-5-5-|-5-5-5-5-5-5-5-5-|-2-2-2-2-2-2-2-5-|-(5)-5-5-5-5-5-5-5-|
E|-----------------|-----------------|-----------------|-------------------|


[Outro]

e|---------------|-------------------|-4--4--4-4-4-4-|-4-4-4-4--4----|
B|---------------|----------10--10---|-5--5--5-5-5-5-|-5-5-5-5--5----|
G|---------------|-----------9---9---|-6--6--6-6-6-6-|-7-7-7-6--4----|
D|-7--7--7-9--11-|-(11)-11--11--11---|-6--6--6-6-6-6-|-6-6-6-6--6----|
A|-0--0--0-0---0-|--(0)--0---0---0---|-4--4--4-4-4-4-|-4-4-4-4--4----|
E|---------------|-------------------|---------------|---------------|


e|---------------|-----------------|-------------|------------|
B|---------------|-----------------|-------------|------------|
G|-9--9--9--7--9-|-(9)--9--9--9--7-|-9--9--9--7--|-7-7-7-6-4--|
D|-0--0--0--0--0-|-(0)--0--0--0--0-|-9--9--9--9--|-0-0-0-0-0--|
A|---------------|-----------------|-9--9--9--9--|------------|
E|---------------|-----------------|-7--7--7--7--|------------|


e|---------------|-------------------|-4--4--4-4-4-4-|-4-4-4-4--4----|------|
B|---------------|----------10--10---|-5--5--5-5-5-5-|-5-5-5-5--5----|-3----|
G|---------------|-----------9---9---|-6--6--6-6-6-6-|-7-7-7-6--4----|-2----|
D|-7--7--7-9--11-|-(11)-11--11--11---|-6--6--6-6-6-6-|-6-6-6-6--6----|-0----|
A|-0--0--0-0---0-|--(0)--0---0---0---|-4--4--4-4-4-4-|-4-4-4-4--4----|-0----|
E|---------------|-------------------|---------------|---------------|------|            
Submit corrections


        Without Love  lessons Hard to play? Try these video lessons and learn fast Without Love  lessons
        
↑ Back to top | Tablatures and chords for acoustic guitar and electric guitar, ukulele, drums are parodies/interpretations of the original songs. You may use it for private study, scholarship, research or language learning purposes only