» » »

Descendents - Shameless Halo Tabs

Artists:  A B C D E F G H I J K L M N O P Q R S T U V W X Y Z # 

Shameless Halo Tabs

(ver. 1) Click to play this song!
Descendents
 Rating:
4.3/5 (26 votes)

 Shameless Halo  lessons Tabs too difficult? Try these video lessons and learn fast
 
                [Intro]

e|----------------|------------------|------------------|------------------|
B|----------------|------------------|------------------|------------------|
G|-5--5-5-5-------|------------------|------------------|------------------|
D|-5--5-5-5-----3-|-(3)--3-3-3-----5-|-(5)--5-5-5-5-5-5-|-5-5-5-5-5-5-5-5--| x2
A|-3--3-3-3-----3-|-(3)--3-3-3-----5-|-(5)--5-5-5-5-5-5-|-5-5-5-5-5-5-5-5--|
E|----------0-0-1-|-(1)--1-1-1-0-1-3-|-(3)--3-3-3-3-3-3-|-3-3-3-3-3-3-3-3--|


[Chorus]

e||-------------|-------------|----------------|-----------------|
B||-------------|-------------|----------------|-----------------|
G||-5--5--5--5--|-------------|----------------|-----------------|
D||-5--5--5--5--|-3--3--3--3--|-5--5-5-5-5-5-5-|-5-5-5-5-5-5-5-5-|
A||-3--3--3--3--|-3--3--3--3--|-5--5-5-5-5-5-5-|-5-5-5-5-5-5-5-5-|
E||-------------|-1--1--1--1--|-3--3-3-3-3-3-3-|-3-3-3-3-3-3-3-3-|


e|----------------|----------------|----------------|-----------------||
B|----------------|----------------|----------------|-----------------||
G|-5--5-5-5-5-5-5-|-2--2-2-2-2-2-2-|----------------|-----------------||
D|-7--7-7-7-7-7-7-|-3--3-3-3-3-3-3-|-5--5-5-5-5-5-5-|-5-5-5-5-5-5-5-5-|| x2
A|-7--7-7-7-7-7-7-|-3--3-3-3-3-3-3-|-5--5-5-5-5-5-5-|-5-5-5-5-5-5-5-5-||
E|-5--5-5-5-5-5-5-|-1--1-1-1-1-1-1-|-3--3-3-3-3-3-3-|-3-3-3-3-3-3-3-3-||


[Verse]

e|---------------|-------------------|
B|---------------|-------------------|
G|-5-5-5---------|-------------------|
D|-5-5-5-7--7--3-|-3--3-3-3-3-3-3----| x2
A|-3-3-3-7--7--3-|-3--3-3-3-3-3-3----|
E|-------5--5--1-|-1--1-1-1-1-1-1----|


e|-----------------|--------------------|
B|-----------------|--------------------|
G|-----------------|--------------------|
D|-5-5-5-5-5-5-5-5-|-3-3-3-3-3-3-3-3----|
A|-5-5-5-5-5-5-5-5-|-3-3-3-3-3-3-3-3----|
E|-3-3-3-3-3-3-3-3-|-1-1-1-1-1-1-1-1----|


[Interlude]

e|----------------|------------------|------------------|------------------|
B|----------------|------------------|------------------|------------------|
G|-5--5-5-5-------|------------------|------------------|------------------|
D|-5--5-5-5-----3-|-(3)--3-3-3-----5-|-(5)--5-5-5-5-5-5-|-5-5-5-5-5-5-5-5--|
A|-3--3-3-3-----3-|-(3)--3-3-3-----5-|-(5)--5-5-5-5-5-5-|-5-5-5-5-5-5-5-5--|
E|----------0-0-1-|-(1)--1-1-1-0-1-3-|-(3)--3-3-3-3-3-3-|-3-3-3-3-3-3-3-3--|


e|--8------8--------------|---------------------------|
B|-11b13--11b13-----11b13-|-(11)-11-10-8-10b11r10-8---|
G|------------------------|-------------------------7-|
D|------------------------|---------------------------|
A|------------------------|---------------------------|
E|------------------------|---------------------------|


e|--------------------|------------------|------|
B|--------------------|------------------|------|
G|-(7)---7-9-7-9-9b10-|-(9)-9--7-9-7-5-7-|-5----|
D|--------------------|------------------|------|
A|--------------------|------------------|------|
E|--------------------|------------------|------|


[Chorus 2]

e|-------------|-------------|----------------|-----------------|
B|-------------|-------------|----------------|-----------------|
G|-5--5--5--5--|-------------|----------------|-----------------|
D|-5--5--5--5--|-3--3--3--3--|-5--5-5-5-5-5-5-|-5-5-5-5-5-5-5-5-|
A|-3--3--3--3--|-3--3--3--3--|-5--5-5-5-5-5-5-|-5-5-5-5-5-5-5-5-|
E|-------------|-1--1--1--1--|-3--3-3-3-3-3-3-|-3-3-3-3-3-3-3-3-|


e|----------------|----------------|----------------|-----------------|
B|----------------|----------------|----------------|-----------------|
G|-5--5-5-5-5-5-5-|-2--2-2-2-2-2-2-|----------------|-----------------|
D|-7--7-7-7-7-7-7-|-3--3-3-3-3-3-3-|-5--5-5-5-5-5-5-|-5-5-5-5-5-5-5-5-|
A|-7--7-7-7-7-7-7-|-3--3-3-3-3-3-3-|-5--5-5-5-5-5-5-|-5-5-5-5-5-5-5-5-|
E|-5--5-5-5-5-5-5-|-1--1-1-1-1-1-1-|-3--3-3-3-3-3-3-|-3-3-3-3-3-3-3-3-|


e|-------------|-------------|----------------|-----------------|
B|-------------|-------------|----------------|-6-----6---6-----|
G|-5--5--5--5--|-------------|----------------|-4-x-x-4-x-4-x-x-|
D|-5--5--5--5--|-3--3--3--3--|-5--5-5-5-5-5-5-|---x-x---x---x-x-|
A|-3--3--3--3--|-3--3--3--3--|-5--5-5-5-5-5-5-|-----------------|
E|-------------|-1--1--1--1--|-3--3-3-3-3-3-3-|-----------------|


[Verse 2]

e|---------------|-------------------|
B|---------------|-------------------|
G|-5-5-5---------|-------------------|
D|-5-5-5-7--7--3-|-3--3-3-3-3-3-3----| x2
A|-3-3-3-7--7--3-|-3--3-3-3-3-3-3----|
E|-------5--5--1-|-1--1-1-1-1-1-1----|


e|-----------------|--------------------|
B|-----------------|--------------------|
G|-----------------|--------------------|
D|-5-5-5-5-5-5-5-5-|-3-3-3-3-3-3-3-3----| x2
A|-5-5-5-5-5-5-5-5-|-3-3-3-3-3-3-3-3----|
E|-3-3-3-3-3-3-3-3-|-1-1-1-1-1-1-1-1----|


[Bridge]

e|----------------|----------|----------------|------|
B|----------------|----------|----------------|------|
G|-5-5-5-5--------|----------|----------------|------|
D|-5-5-5-5--3-3-3-|-3--------|-7-7-7-7--5-5-5-|-5----|
A|-3-3-3-3--3-3-3-|-3--------|-7-7-7-7--5-5-5-|-5----|
E|----------1-1-1-|-1--------|-5-5-5-5--3-3-3-|-3----|


e|----------------|------------|----------------|-----------------|
B|----------------|------------|----------------|-----------------|
G|-5-5-5-5--------|------------|----------------|-----------------|
D|-5-5-5-5--3-3-3-|-3----------|-5--5-5-5-5-5-5-|-5-5-5-5-5-5-5-5-|
A|-3-3-3-3--3-3-3-|-3----------|-5--5-5-5-5-5-5-|-5-5-5-5-5-5-5-5-|
E|----------1-1-1-|-1-x\-------|-3--3-3-3-3-3-3-|-3-3-3-3-3-3-3-3-|


[Chorus 3]

e|-------------|-------------|----------------|-----------------|
B|-------------|-------------|----------------|-----------------|
G|-5--5--5--5--|-------------|----------------|-----------------|
D|-5--5--5--5--|-3--3--3--3--|-5--5-5-5-5-5-5-|-5-5-5-5-5-5-5-5-|
A|-3--3--3--3--|-3--3--3--3--|-5--5-5-5-5-5-5-|-5-5-5-5-5-5-5-5-|
E|-------------|-1--1--1--1--|-3--3-3-3-3-3-3-|-3-3-3-3-3-3-3-3-|


e|----------------|----------------|----------------|-----------------|
B|----------------|----------------|----------------|-----------------|
G|-5--5-5-5-5-5-5-|-2--2-2-2-2-2-2-|----------------|-----------------|
D|-7--7-7-7-7-7-7-|-3--3-3-3-3-3-3-|-5--5-5-5-5-5-5-|-5-5-5-5-5-5-5-5-|
A|-7--7-7-7-7-7-7-|-3--3-3-3-3-3-3-|-5--5-5-5-5-5-5-|-5-5-5-5-5-5-5-5-|
E|-5--5-5-5-5-5-5-|-1--1-1-1-1-1-1-|-3--3-3-3-3-3-3-|-3-3-3-3-3-3-3-3-|


[Verse 3]

e|---------------|-------------------|
B|---------------|-------------------|
G|-5-5-5---------|-------------------|
D|-5-5-5-7--7--3-|-3--3-3-3-3-3-3----|
A|-3-3-3-7--7--3-|-3--3-3-3-3-3-3----|
E|-------5--5--1-|-1--1-1-1-1-1-1----|


e|-----------------|--------------------|
B|-----------------|--------------------|
G|-----------------|--------------------|
D|-5-5-5-5-5-5-5-5-|-3-3-3-3-3-3-3-3----|
A|-5-5-5-5-5-5-5-5-|-3-3-3-3-3-3-3-3----|
E|-3-3-3-3-3-3-3-3-|-1-1-1-1-1-1-1-1----|


[Outro]

e|----------------|------------------|------------------|------------------|
B|----------------|------------------|------------------|------------------|
G|-5--5-5-5-------|------------------|------------------|------------------|
D|-5--5-5-5-----3-|-(3)--3-3-3-----5-|-(5)--5-5-5-5-5-5-|-5-5-5-5-5-5-5-5--| x2
A|-3--3-3-3-----3-|-(3)--3-3-3-----5-|-(5)--5-5-5-5-5-5-|-5-5-5-5-5-5-5-5--|
E|----------0-0-1-|-(1)--1-1-1-0-1-3-|-(3)--3-3-3-3-3-3-|-3-3-3-3-3-3-3-3--|


e|--------|
B|--------|
G|-5--5---|
D|-5--5---|
A|-3--3---|
E|--------|            
Submit corrections


        Shameless Halo  lessons Hard to play? Try these video lessons and learn fast Shameless Halo  lessons
        
↑ Back to top | Tablatures and chords for acoustic guitar and electric guitar, ukulele, drums are parodies/interpretations of the original songs. You may use it for private study, scholarship, research or language learning purposes only