» » »

Descendents - Im Not A Punk Bass

Artists:  A B C D E F G H I J K L M N O P Q R S T U V W X Y Z # 

Im Not A Punk Bass

(ver. 1) Click to play this song!
Descendents
 Rating:
4.3/5 (24 votes)

 Im Not A Punk lessons Tabs too difficult? Try these video lessons and learn fast
 
                [Intro/Verse]
G|-------------|
D|-------------|   x8
A|-----66----5-|
E|--33----88---|

[Chorus]
G|-----------------------|
D|-----------------------|
A|-55-2---666-888-101010-|
E|-----------------------|

G|------------------|
D|------------------|
A|---666-888-101010-|
E|------------------|

[Verse]
G|-------------|
D|-------------|   x8
A|-----66----5-|
E|--33----88---|

[Chorus]
G|-----------------------|
D|-----------------------|
A|-55-2---666-888-101010-|
E|-----------------------|

G|------------------|
D|------------------|
A|---666-888-101010-|
E|------------------|

[Bridge]
G|------|
D|------|     X4
A|-55-2-|
E|------|

[Chorus/Outro]
G|------------------------|
D|-----------------------5|
A|---666-888-101010-66-5--|
E|------------------------|

G|------------------------------|
D|------------------------5-----|
A|---666-888-101010-66666---565-|
E|------------------------------|

G|--------------------------|
D|-----------------------5--|
A|---666-888-101010-5555---6|
E|--------------------------|

G|------------------|
D|------------------|
A|---666-888-101010-|
E|------------------|
            
Submit corrections


        Im Not A Punk lessons Hard to play? Try these video lessons and learn fast Im Not A Punk lessons
        
↑ Back to top | Tablatures and chords for acoustic guitar and electric guitar, ukulele, drums are parodies/interpretations of the original songs. You may use it for private study, scholarship, research or language learning purposes only