» » »

Descendents - Im Not A Loser Tabs

Artists:  A B C D E F G H I J K L M N O P Q R S T U V W X Y Z # 

Im Not A Loser Tabs

(ver. 1) Click to play this song!
Descendents
 Rating:
4.3/5 (21 vote)

 Im Not A Loser lessons Tabs too difficult? Try these video lessons and learn fast
 
                [Intro]

e|---------------------------------------------------------------------------------------|
B|---------------------------------------------------------------------------------------|
G|---------------------------------------------------------------------------------------|
D|-10-10-10-10-11-11-11-11-14-14-14-14-12-12-12-12-11-11-12-12-14-14-12-12-11-11-9--9--11|
A|-10-10-10-10-11-11-11-11-14-14-14-14-12-12-12-12-11-11-12-12-14-14-12-12-11-11-9--9--11|
E|-9--9--9--9--10-10-10-10-12-12-12-12-10-10-10-10-9--9--10-10-12-12-10-10-9--9--7--7--9-|


[Verse 1]

e|---------------------------------------------------------------------------|
B|---------------------------------------------------------------------------|
G|-------------------7---4-4-4-4-4-4-4-4---4---4-4---4-4-4-6-6-6-6-9---6-----| x3
D|-4---4-4-7---7-----7---4-4-4-4-4-4-4-4---4---4-4---4-4-4-6-6-6-6-9---6-----|
A|-4---4-4-7---7-----5---2-2-2-2-2-2-2-2---2---2-2---2-2-2-4-4-4-4-7---4-----|
E|-2---2-2-5---5-------------------------------------------------------------|

e|---------------------------------------------------------------------------|
B|---------------------------------------------------------------------------|
G|-------------------7---4-4-4-4-4-4-4-4---4---4-4---4-4-4-6-6-6-6-6-6-6-6---|
D|-4---4-4-7---7-----7---4-4-4-4-4-4-4-4---4---4-4---4-4-4-6-6-6-6-6-6-6-6---|
A|-4---4-4-7---7-----5---2-2-2-2-2-2-2-2---2---2-2---2-2-2-4-4-4-4-4-4-4-4---|
E|-2---2-2-5---5-------------------------------------------------------------|


[Chorus]

e|--------------------------------------------------------------------------------------|
B|--------------------------------------------------------------------------------------|
G|--------------------------------------------------------------------------------------| x2
D|-11----11-11-12-12-12-12-14-14-14-14-12-12-12-12-11-11-12-12-14-14-12-12-11-11-9-9-11-|
A|-11----11-11-12-12-12-12-14-14-14-14-12-12-12-12-11-11-12-12-14-14-12-12-11-11-9-9-11-|
E|-9-----9--9--10-10-10-10-12-12-12-12-10-10-10-10-9--9--10-10-12-12-10-10-9--9--7-7-9--|

e|--------------------------------------|
B|--------------------------------------|
G|--------------------------------------|
D|-11-11-12-12-14-14-12-12-11-11-9-9-11-|
A|-11-11-12-12-14-14-12-12-11-11-9-9-11-|
E|-9--9--10-10-12-12-10-10-9--9--7-7-9--|


[Verse 2]

e|---------------------------------------------------------------------------|
B|---------------------------------------------------------------------------|
G|-------------------7---4-4-4-4-4-4-4-4---4---4-4---4-4-4-6-6-6-6-9---6-----| x3
D|-4---4-4-7---7-----7---4-4-4-4-4-4-4-4---4---4-4---4-4-4-6-6-6-6-9---6-----|
A|-4---4-4-7---7-----5---2-2-2-2-2-2-2-2---2---2-2---2-2-2-4-4-4-4-7---4-----|
E|-2---2-2-5---5-------------------------------------------------------------|

e|---------------------------------------------------------------------------|
B|---------------------------------------------------------------------------|
G|-------------------7---4-4-4-4-4-4-4-4---4---4-4---4-4-4-6-6-6-6-6-6-6-6---|
D|-4---4-4-7---7-----7---4-4-4-4-4-4-4-4---4---4-4---4-4-4-6-6-6-6-6-6-6-6---|
A|-4---4-4-7---7-----5---2-2-2-2-2-2-2-2---2---2-2---2-2-2-4-4-4-4-4-4-4-4---|
E|-2---2-2-5---5-------------------------------------------------------------|


[Chorus]

e|--------------------------------------------------------------------------------------|
B|--------------------------------------------------------------------------------------|
G|--------------------------------------------------------------------------------------| x2
D|-11----11-11-12-12-12-12-14-14-14-14-12-12-12-12-11-11-12-12-14-14-12-12-11-11-9-9-11-|
A|-11----11-11-12-12-12-12-14-14-14-14-12-12-12-12-11-11-12-12-14-14-12-12-11-11-9-9-11-|
E|-9-----9--9--10-10-10-10-12-12-12-12-10-10-10-10-9--9--10-10-12-12-10-10-9--9--7-7-9--|


[Bridge]

e|-------------------------------------------------------------------------------------------|
B|-------------------------------------------------------------------------------------------|
G|-11---11---11-11-11-11---11-11---11-11-11-11-----------------------------------------------| x2
D|-11---11---11-11-11-11---11-11---11-11-11-11-14----14----14-14-14-11---11-11---11-11-11-11-|
A|-9----9----9--9--9--9----9--9----9--9--9--9--14----14----14-14-14-11---11-11---11-11-11-11-|
E|---------------------------------------------12----12----12-12-12-9----9--9----9--9--9--9--|

e|---------------------------------------------------------------------------------|
B|---------------------------------------------------------------------------------|
G|-11---11---11-11-11-11---11-11---11-11-11-11-------------------------------------| 
D|-11---11---11-11-11-11---11-11---11-11-11-11-14----14----14-14-14-7---7---9---14-|
A|-9----9----9--9--9--9----9--9----9--9--9--9--14----14----14-14-14-7---7---9---14-|
E|---------------------------------------------12----12----12-12-12-5---5---7---12-|

e|--------------------------------------------------------------------------------|
B|--------------------------------------------------------------------------------|
G|-11---11---11-11-11-11---11-11---11-11-11-11------------------------------------| 
D|-11---11---11-11-11-11---11-11---11-11-11-11-14----14----14-14-14-7---7---9---2-|
A|-9----9----9--9--9--9----9--9----9--9--9--9--14----14----14-14-14-7---7---9---2-|
E|---------------------------------------------12----12----12-12-12-5---5---7---0-|
            
Submit corrections


        Im Not A Loser lessons Hard to play? Try these video lessons and learn fast Im Not A Loser lessons
        
↑ Back to top | Tablatures and chords for acoustic guitar and electric guitar, ukulele, drums are parodies/interpretations of the original songs. You may use it for private study, scholarship, research or language learning purposes only