» » »

Descendents - Gcf Tabs

Artists:  A B C D E F G H I J K L M N O P Q R S T U V W X Y Z # 

Gcf Tabs

(ver. 1) Click to play this song!
Descendents
 Rating:
4.7/5 (21 vote)

 Gcf lessons Tabs too difficult? Try these video lessons and learn fast
 
                Intro

e|---------------------------------------------|
B|---------------------------------------------|
G|-----------------------------------8------10-|
D|-10-10-10-10-10-10-10-10-10-10-10--8-x-8--10-|
A|-10-10-10-10-10-10-10-10-10-10-10--6-x-8---8-|
E|--8--8--8--8--8--8--8--8--8--8--8----x-6-----|

e|------------------------------------------------------------|
B|------------------------------------------------------------|
G|----------------------------------8------10-8----6--8-6---6-|
D|-10-10-10-10-10-10-10-10-10-10-10-8-x-8--10-8--8-6--8-6-8-6-|
A|-10-10-10-10-10-10-10-10-10-10-10-6-x-8---8-6--8-4--6-4-8-4-|
E|--8--8--8--8--8--8--8--8--8--8--8---x-6--------6--------6---| 

e|-----------------------------|
B|-----------------------------|
G|-------------6-6-6-6-8-8-8-8-|
D|-10-10-10-10-6-6-6-6-8-8-8-8-|
A|-10-10-10-10-4-4-4-4-6-6-6-6-|
E|--8--8--8--8-----------------| 


Riff 1. (All i want is some, Good Clean Fun?) x2 

e|-----------------------------------------------|
B|-----------------------------------------------|
G|-------------------10--------------------------|
D|-3-3-3-3--8-8-8-8--10--10-10-10-10-10-10-10-10-|
A|-3-3-3-3--8-8-8-8---8--10-10-10-10-10-10-10-10-|
E|-1-1-1-1--6-6-6-6-------8--8--8--8--8--8--8--8-|


Riff 2. (You can freak out?) x2

e|--------------------------------------------------------------------|
B|--------------------------------------------------------------------|
G|--------------------------8-7-------------8-7------------------10-8-|
D|-8/10-10--8--5--7-7-7-7-7-8-7---8-8-8-8-8-8-7---10-10-10-10-10-10-8-|
A|-8/10-10--8--5--7-7-7-7-7-6-5---8-8-8-8-8-6-5---10-10-10-10-10--8-6-|
E|-6/-8--8--6--3--5-5-5-5-5-------6-6-6-6-6--------8--8--8--8--8------|

e|-------------------------------------------------------------|
B|-------------------------------------------------------------|
G|----------------------------------10-------------------------|
D|-12-12-12-12--10-8-8-8------8-8-8-10-10-10-10-10-10-10-10-10-|
A|-12-12-12-12--10-8-8-8------8-8-8--8-10-10-10-10-10-10-10-10-|
E|-10-10-10-10---8-6-6-6------6-6-6-----8--8--8--8--8--8--8--8-|


Riff 3. (So don't misunderstand what I say?)

e|---------------------------------------------|
B|---------------------------------------------|
G|-----------------------------------8------10-|
D|-10-10-10-10-10-10-10-10-10-10-10--8-x-8--10-|
A|-10-10-10-10-10-10-10-10-10-10-10--6-x-8---8-|
E|--8--8--8--8--8--8--8--8--8--8--8----x-6-----| 1. 2. 3.

e|------------------------------------------------------------|
B|------------------------------------------------------------|
G|----------------------------------8------10-8----6--8-6---6-|
D|-10-10-10-10-10-10-10-10-10-10-10-8-x-8--10-8--8-6--8-6-8-6-|
A|-10-10-10-10-10-10-10-10-10-10-10-6-x-8---8-6--8-4--6-4-8-4-|
E|--8--8--8--8--8--8--8--8--8--8--8---x-6--------6--------6---| 

e|-----------------------------|
B|-----------------------------|
G|-------------6-6-6-6-8-8-8-8-|
D|-10-10-10-10-6-6-6-6-8-8-8-8-|
A|-10-10-10-10-4-4-4-4-6-6-6-6-|
E|--8--8--8--8-----------------| 4.

Riff 1.

Riff 2.

Riff 3.

Riff 1.

End

e|----------------|
B|----------------|
G|--------10\-----|
D|-10-10--10\-----|
A|-10-10---8\-----|
E|--8--8----------|            
Submit corrections


        Gcf lessons Hard to play? Try these video lessons and learn fast Gcf lessons
        
↑ Back to top | Tablatures and chords for acoustic guitar and electric guitar, ukulele, drums are parodies/interpretations of the original songs. You may use it for private study, scholarship, research or language learning purposes only