» » »

Descendents - Feel This Tabs

Artists:  A B C D E F G H I J K L M N O P Q R S T U V W X Y Z # 

Feel This Tabs

(ver. 1) Click to play this song!
Descendents
 Rating:
4.4/5 (14 votes)

 Feel This  lessons Tabs too difficult? Try these video lessons and learn fast
 
                [Intro/Verse]

 4/4
e|-----------------|---------------|
B|-----------------|---------------|
G|-----------------|---------------|
D|-4-4-4-----------|-4-4-4-7--7----| x4
A|-2-2-2---4-4-4---|-2-2-2-5--5-7--|
E|-------0-2-2-2-0-|------------5--|


[Pre-Chorus]
                                                                      
e|-----------------|----------------|--------------------|--------------------|
B|-----------------|----------------|---------------5----|-(5)---------5------|
G|-----------------|----------------|---------------7b9--|-(7)b9-7-7-7-7b9~~~-|
D|-----------------|----------------|--------------------|--------------------|
A|-5-5-5-5-5-5-5-5-|-7-x-x-7--7-x-x-|-5-5-5-5-5-5-5------|--------------------|
E|-3-3-3-3-3-3-3-3-|-5-x-x-5--5-x-x-|-3-3-3-3-3-3-3------|--------------------|


e|-----------------|---------------|
B|-----------------|---------------|
G|-----------------|---------------|
D|-4-4-4-----------|-4-4-4-7--7----| x2
A|-2-2-2---4-4-4---|-2-2-2-5--5-7--|
E|-------0-2-2-2-0-|------------5--|


[Chorus]

 6/4
e|----------------------|------------------------|
B|----------------------|------------------------|
G|-4--4-4-4-4-4-4-7-----|-9--9-9-9-9-9-9-7-------|
D|-4--4-4-4-4-4-4-7--7--|-9--9-9-9-9-9-9-7--7----|
A|-2--2-2-2-2-2-2-5--7--|-7--7-7-7-7-7-7-5--7----|
E|-------------------5--|-------------------5----|


e|----------------------|------------------|
B|----------------------|------------------|
G|-4--4-4-4-4-4-4-7-----|-11---9---7---4---|
D|-4--4-4-4-4-4-4-7--7--|-11---9---7---4---|
A|-2--2-2-2-2-2-2-5--7--|--9---7---5---2---|
E|-------------------5--|------------------|


e|----------|
B|----------|
G|----------|
D|-4--------|
A|-4--------|
E|-2--x\----| pick slide


[Intro/Verse]

 4/4
e|-----------------|---------------|
B|-----------------|---------------|
G|-----------------|---------------|
D|-4-4-4-----------|-4-4-4-7--7----| x2
A|-2-2-2---4-4-4---|-2-2-2-5--5-7--|
E|-------0-2-2-2-0-|------------5--|


[Pre-Chorus]
                                                                      
e|-----------------|----------------|--------------------|--------------------|
B|-----------------|----------------|---------------5----|-(5)---------5------|
G|-----------------|----------------|---------------7b9--|-(7)b9-7-7-7-7b9~~~-|
D|-----------------|----------------|--------------------|--------------------|
A|-5-5-5-5-5-5-5-5-|-7-x-x-7--7-x-x-|-5-5-5-5-5-5-5------|--------------------|
E|-3-3-3-3-3-3-3-3-|-5-x-x-5--5-x-x-|-3-3-3-3-3-3-3------|--------------------|


e|-----------------|---------------|
B|-----------------|---------------|
G|-----------------|---------------|
D|-4-4-4-----------|-4-4-4-7--7----| x2
A|-2-2-2---4-4-4---|-2-2-2-5--5-7--|
E|-------0-2-2-2-0-|------------5--|


[Chorus]

 6/4
e|----------------------|------------------------|
B|----------------------|------------------------|
G|-4--4-4-4-4-4-4-7-----|-9--9-9-9-9-9-9-7-------|
D|-4--4-4-4-4-4-4-7--7--|-9--9-9-9-9-9-9-7--7----|
A|-2--2-2-2-2-2-2-5--7--|-7--7-7-7-7-7-7-5--7----|
E|-------------------5--|-------------------5----|


e|----------------------|------------------|
B|----------------------|------------------|
G|-4--4-4-4-4-4-4-7-----|-11---9---7---4---|
D|-4--4-4-4-4-4-4-7--7--|-11---9---7---4---|
A|-2--2-2-2-2-2-2-5--7--|--9---7---5---2---|
E|-------------------5--|------------------|


e|------------------|
B|------------------|
G|-11---9---7---4---|
D|-11---9---7---4---| x2
A|--9---7---5---2---|
E|------------------|            
Submit corrections


        Feel This  lessons Hard to play? Try these video lessons and learn fast Feel This  lessons
        
↑ Back to top | Tablatures and chords for acoustic guitar and electric guitar, ukulele, drums are parodies/interpretations of the original songs. You may use it for private study, scholarship, research or language learning purposes only