» » »

Descendents - Comeback Kid Bass

Artists:  A B C D E F G H I J K L M N O P Q R S T U V W X Y Z # 

Comeback Kid Bass

(ver. 1) Click to play this song!
Descendents
 Rating:
4.3/5 (9 votes)

 Comeback Kid lessons Tabs too difficult? Try these video lessons and learn fast
 
                [Intro/Pre-Verse]

G|----------------------------------------------9-9-8-8-6-6---------|
D|----------------6-6-6-------------------------------------9-9-----|
A|-------6--6-9---------6--6-9--7-7-6-6-----------------------------|
E|-7-7-7--------------------------------9-9-7-7---------------------|

G|-----------------------------9-9-8-8-6-6----------|
D|----------------6-6-6--------------------9-9------|
A|-------6--6-9---------6--6-9----------------------|
E|-7-7-7---------------------------------------0~---|


[Verse 1]

X2
G|---------------------------------------------------------------------------|
D|---------------------------------------------------------------------------|
A|-----------------2-2-2-2-2-4-2-----------1-1-2-2---------------------------|
E|-4-4-4-4-4-4-4-4---------------4-2-2-2-2---------0-0-0-0-0-0-2-2-----------|

G|-----------------------------------------------------|
D|-----------------------------------------------------|
A|-----------------2-2-2-2-2-4-2------1----7--6--------|
E|-4-4-4-4-4-4-4-4---------------4-2-----2-------9-----|


[Chorus]

G|---------------------------------------------------------------------------|
D|---------------------------------------------------------------------------|
A|-----------------6-6-6-6-9-9-9-9-----------------6-6-6-6-9-9-9-9-----------|
E|-7-7-7-7-9-9-9-9-----------------4-4-4-4-7-7-7-7---------------------------|

G|---------------------------------------------------------------------------|
D|-----------------6-6-6-6-9-9-9-9-------------------------------------------|
A|-7-7-7-7-9-9-9-9-----------------9-9-7-7-6-6-----7~------------------------|
E|---------------------------------------------9-9---------------------------|

[Pre-Verse 2]

G|-----------------------------9-9-8-8-6-6----------|
D|----------------6-6-6--------------------9-9------|
A|-------6--6-9---------6--6-9----------------------|
E|-7-7-7---------------------------------------0~---|

[Verse 2]

G|---------------------------------------------------------------------|
D|---------------------------------------------------------------------|
A|-----------------2-2-2-2--4-2----------1-1-2-------------------------|
E|-4-4-4-4-4-4-4-4---------------2-2-2-2--------0-0-0-0-0-0-2-2--------|

G|------------------------------------------------------------|
D|------------------------------------8-----------------------|
A|-----------------2-2-2-2-2-2-2-2/9-----9-7-7-7-6-6-6--------|
E|-4-4-4-4-4-4-4-4-------------------------------------9------|


[Chorus]

G|---------------------------------------------------------------------------|
D|---------------------------------------------------------------------------|
A|-----------------6-6-6-6-9-9-9-9-----------------6-6-6-6-9-9-9-9-----------|
E|-7-7-7-7-9-9-9-9-----------------4-4-4-4-7-7-7-7---------------------------|

G|---------------------------------------------------------------------------|
D|-----------------6-6-6-6-9-9-9-9-------------------------------------------|
A|-7-7-7-7-9-9-9-9-----------------9-9-7-7-6-6-----7-7-6-6-----6-------------|
E|---------------------------------------------9-9---------9-9---9-----------|

G|---------------------------------------------------------------------------|
D|---------------------------------------------------------------------------|
A|-----------------6-6-6-6-9-9-9-9-----------------6-6-6-6-9-9-9-9-----------|
E|-7-7-7-7-9-9-9-9-----------------4-4-4-4-7-7-7-7---------------------------|

G|---------------------------------------------------------------------------|
D|-----------------6-6-6-6-9-9-9-9-------------------------------------------|
A|-7-7-7-7-9-9-9-9-----------------9-9-7-7-6-6-----7~------------------------|
E|---------------------------------------------9-9---------------------------|

[Bridge]

X2
G|---------6-4-------------8-6-----------------------------------------------|
D|-----4-------6-4-----6-------9-8-9-9-8-6-----------------------------------|
A|-6-6---6---------7-7---7-----------------6-7-9----------6-6-9--------------|
E|-----------------------------------------------7--7-9-7--------------------|

G|-------------------------------------------------------13~----------------------|
D|--------------------------------------------------------------------------------|
A|-6--6--6--7--7--7--9---9---9---9---9---9---9---9---9----------------------------|
E|---------------------9---9---9---9---9---9---9---9---9------0--0--0--0--2-2-----|


[Chorus]

G|---------------------------------------------------------------------------|
D|---------------------------------------------------------------------------|
A|-----------------6-6-6-6-9-9-9-9-----------------6-6-6-6-9-9-9-9-----------|
E|-7-7-7-7-9-9-9-9-----------------4-4-4-4-7-7-7-7---------------------------|

G|---------------------------------------------------------------------------|
D|-----------------6-6-6-6-9-9-9-9-------------------------------------------|
A|-7-7-7-7-9-9-9-9-----------------9-9-7-7-6-6-----7~------------------------|
E|---------------------------------------------9-9---------------------------|


[Outro]

G|-------------------|------------------------|
D|-------------------|------------------------|
A|-------------------|--9--9-9--9-9-9-7~------|
E|-7~----4~----0~----|------------------------|

G|----------------------------------------------9-9-8-8-6-6---------|
D|----------------6-6-6-------------------------------------9-9-----|
A|-------6--6-9---------6--6-9--7-7-6-6-----------------------------|
E|-7-7-7--------------------------------9-9-7-7---------------------|

G|----------------------------------------------9-9-8-8-6-6-----8-8-6-6-------------|
D|----------------6-6-6-------------------------------------9-9---------9-9-8-8-----|
A|-------6--6-9---------6--6-9--7-7-6-6---------------------------------------------|
E|-7-7-7--------------------------------9-9-7-7-------------------------------------|

G|-----------------------------9-9-8-8-6-6----------|
D|----------------6-6-6--------------------9-9------|
A|-------6--6-9---------6--6-9-----------------7~---|
E|-7-7-7--------------------------------------------|

            
Submit corrections


        Comeback Kid lessons Hard to play? Try these video lessons and learn fast Comeback Kid lessons
        
↑ Back to top | Tablatures and chords for acoustic guitar and electric guitar, ukulele, drums are parodies/interpretations of the original songs. You may use it for private study, scholarship, research or language learning purposes only