» » »

Descendents - Catalina Tabs

Artists:  A B C D E F G H I J K L M N O P Q R S T U V W X Y Z # 

Catalina Tabs

(ver. 1) Click to play this song!
Descendents
 Rating:
4/5 (4 votes)

 Catalina lessons Tabs too difficult? Try these video lessons and learn fast
 
                
ok so this is a great song, and no one had tabbed it for guitar, only bass so i
really wanted to tab it :)


ROCK ON

Intro
e|-------------------------------------------------------------------|
B|-------------------------------------------------------------------|
G|-------------------------------------------------------------------|
D|-------------------------------------------------------------------|
A|-2-x-ALOT----------------------------------------------------------|
E|-------------------------------------------------------------------|


Verse *note* This part is very fast to play, listen very closely to what notes you hit 
what time
e|-------------------------------------------------------------|
B|-------------------------------------------------------------|
G|-----------9------7------------------------------------------|
D|---9-------9-x3---7--x1--9-----7-----------------------------| X4
A|---7-x16---7------5------9-x1--7-x8--------------------------|
E|---7---------------------7-----5-----------------------------|

Chorus
e|-----------------|
B|-----------------|
G|-66-444-22222222-|
D|-66-444-22222222-| x4
A|-44-222-00000000-|
E|-----------------|


Play this after chorus
e|----------------------------------|
B|----------------------------------|
G|----------22-6-7-44-44444444------|
D|-44444444-22-6-7-44-44444444-5~---|
A|-44444444-00-4-5-22-22222222-5~---|
E|-22222222--------------------3~---|


play this after that first riff after chorus
e|-------------------------|
B|-------------------------|
G|-9--7--4--7----9-7-4-7-9-|
D|-9--7--4--7----9-7-4-7-9-|
A|-7--5--2--5----7-5-2-5-7-|
E|-------------------------|


Verse 2
e|-------------------------------------------------------------|
B|-------------------------------------------------------------|
G|-----------9------7------------------------------------------|
D|---9-------9-x3---7--x1--9-----7-----------------------------| X4
A|---7-x16---7------5------9-x1--7-x8--------------------------|
E|---7---------------------7-----5-----------------------------|


Chorus #2
e|-----------------|
B|-----------------|
G|-66-444-22222222-|
D|-66-444-22222222-| x4
A|-44-222-00000000-|
E|-----------------|

Play this after chorus, again
e|--------------------------------|
B|--------------------------------|
G|----------22-6-7-44-44444444----|
D|-44444444-22-6-7-44-44444444-5~-|
A|-44444444-00-4-5-22-22222222-5~-|
E|-22222222--------------------3~-|

play this after that first riff after chorus
e|-------------------------|
B|-------------------------|
G|-9--7--4--7----9-7-4-7-9-|
D|-9--7--4--7----9-7-4-7-9-|
A|-7--5--2--5----7-5-2-5-7-|
E|-------------------------|


CONGRATS YOU JUST LEARNED "CATALINA" by Descendents
            
Submit corrections


        Catalina lessons Hard to play? Try these video lessons and learn fast Catalina lessons
        
↑ Back to top | Tablatures and chords for acoustic guitar and electric guitar, ukulele, drums are parodies/interpretations of the original songs. You may use it for private study, scholarship, research or language learning purposes only