» » »

Derek And The Dominos - Its Too Late Tabs

Artists:  A B C D E F G H I J K L M N O P Q R S T U V W X Y Z # 

Its Too Late Tabs

(ver. 1) Click to play this song!
Derek And The Dominos
 Rating:
4/5 (4 votes)

 Its Too Late lessons Tabs too difficult? Try these video lessons and learn fast
 
                Gtr I (E A D G B E) - 'Eric Clapton - Guitar'
Gtr II (E B E G# B E) - 'Duane Allman - Guitar (Open E)'


 Intro
  Q.=76
  N.C.                 A           D             A          Cmaj7+5/E
 12/8
  Gtr I (El. Gtr.)
  H.      Q.   E E E   E E E E E E E E E E E E   e E E Q.     H.
|--------------------|-------------------------|--------------------||
|--------------------|-------------3---3-3-----|-2----------^-1-----||
|--------------------|-----2-------2-2---2-----|-2----------^-1-----||
|--------------------|---2---------0-----0-----|-2----------^-2-----||
|--------------------|-0-----0-2-4---------4-2-|-0----------^-2-----||
|--------------0-2-4-|-------------------------|------------^-0-----||
|
| Gtr II (El. Gtr. w/ Open E-Tuning - E B E G# B E)
|                                                             ~~~~
| W                    E E E E E E E E E E E E   e E E Q.     H.
|--------------------|-------------------------|------------^13-----||
|--------------------|-2-2-2-2-----3-3-3-3-----|-2----------^13-----||
|--------------------|-1-1-1-1-----1-1-1-1-----|-1----------^-0-----||
|--------------------|-0-0-0-0-----2-2-2-2-----|-0----------^12-----||
|--------------------|-2-2-2-2-----3-3-3-3-----|-2------------------||
|--------------------|-------------------------|--------------------||


 1st Verse
  A           D             A
  E E E E E E E E E E E E   E E E E E E E E E  E  E E
|-------------------2-----|---------------------------|
|-------2---------3---3---|-------2------------2------|
|-----2---2-----2-------2-|-----2---2-------2-----2---|
|---2-------2-0-----------|---2-------2---2---------2-|
|-0-----------------------|-0-----------0-------------|
|-------------------------|---------------------------|
|
| q   E q   E q   E q   E   q   E q   E q   E +E  E E
|-------------------------|---------------------------|
|-------------------------|---------------------------|
|-------------------------|---------------------------|
|-------------------------|---------------------------|
|-5---5-7---7-8---8-7---7-|-5---5-7---7-8---7-(7)-5-5-|
|-5---5-5---5-5---5-5---5-|-5---5-5---5-5---5-(5)-5-5-|


  D
   E E  E  E E  E  E E  E +E  E  E
|----------2------------2-(2)------|
|-------3----3-------3-----------3-|
|----2----------2-------------2----|
|--0---------------0---------------|
|----------------------------------|
|----------------------------------|
|
|  q    E  q    E  q    E  q     E
|----------------------------------|
|----------------------------------|
|----------------------------------|
|-10---10--------------------------|
|-10---10-12---12-13---13-12----12-|
|-10---10-10---10-10---10-10----10-|


   E E  E  E E  E  E E  E  E E  E
|----------2---------------2------|
|-------3----3----------3----3----|
|----2----------2----2----------2-|
|--0---------------0--------------|
|---------------------------------|
|---------------------------------|
|
|  q    E  Q    E  q    E  Q    E
|---------------------------------|
|---------------------------------|
|---------------------------------|
|---------------------------------|
|-10---10-10---12-10---12-10---10-|
|-10---10-10---10-10---10-10---10-|


  A5
  q  E Q  E q  E Q   E     q   E q  E q   E q   E
|----------------------|---------------------------|
|----------------------|---------------------------|
|----------------------|--------------2------------|
|-2--2-4--4-2--2-4---4-|---2---2-4--4-2---2-4---2--|
|-0--0-0--0-0--0-0---0-|---0---0-0--0-0---0-0---0--|
|----------------------|---------------------------|
|
| q  E q  E q  E E E E   a H.         Q.    Q.
|----------------5s3s5-|--------------------5------|
|----------------5s3s5-|-3s5----------5------------|
|----------------5s3s5-|-3s5----------5------------|
|----------------------|---------------------------|
|-5--5-7--7-7--7-------|---------------------------|
|-5--5-5--5-5--5-------|---------------------------|


                                                  2nd Verse
  E                         A         Cmaj7+5/E    A           D
  E E E E E E E E E E E E   e Q  Q.     H.         E E E E E E E E E E E E
|-------------------------|---------------------||-------------------2-----|
|-------------------------|-2---------^-1-------||-------2---------3---3---|
|-------1---1-------1---1-|-2---------^-1-------||-----2---2-----2-------2-|
|-----2---2-------2---2---|-2---------^-2-------||---2-------2-0-----------|
|---2-----------2---------|-0---------^-2-------||-0-----------------------|
|-0-----------0-----------|-----------^-0-------||-------------------------|
|
|                                       ~~~~
| q   E q   E q   E q   E   E Q  Q.     H.         q   E q   E q   E q   E
|-------------------------|-----------^13-------||-------------------------|
|-------------------------|-----------^13-------||-------------------------|
|-------------------------|-----------^-0-------||-------------------------|
|-7---7-7---9-7---9-7---9-|-5---------^12-------||-------------------------|
|-5---5-5---5-5---5-5---5-|-5-------------------||-5---5-7---7-8---8-7---7-|
|-------------------------|-5-------------------||-5---5-5---5-5---5-5---5-|


  A                           D
  E E E E E E E E E  E  E E    E E  E  E E  E  E E  E +E  E  E
|---------------------------|----------2------------2-(2)------|
|-------2------------2------|-------3----3-------3-----------3-|
|-----2---2-------2-----2---|----2----------2-------------2----|
|---2-------2---2---------2-|--0---------------0---------------|
|-0-----------0-------------|----------------------------------|
|---------------------------|----------------------------------|
|
| q   E q   E q   E +E  E E    q    E  q    E  q    E  q     E
|---------------------------|----------------------------------|
|---------------------------|----------------------------------|
|---------------------------|----------------------------------|
|---------------------------|-10---10--------------------------|
|-5---5-7---7-8---7-(7)-5-5-|-10---10-12---12-13---13-12----12-|
|-5---5-5---5-5---5-(5)-5-5-|-10---10-10---10-10---10-10----10-|


   E E  E  E E  E  E E  E  E E  E
|----------2---------------2------|
|-------3----3----------3----3----|
|----2----------2----2----------2-|
|--0---------------0--------------|
|---------------------------------|
|---------------------------------|
|
|  q    E  Q    E  q    E  Q    E
|---------------------------------|
|---------------------------------|
|---------------------------------|
|---------------------------------|
|-10---10-10---12-10---12-10---10-|
|-10---10-10---10-10---10-10---10-|


  A5                                                E
  Q  E Q  E Q  E Q   E     Q   E Q  E Q   E Q   E   E E E E E E E E E E E E
|----------------------|--------------------------|--------------------------|
|----------------------|--------------------------|--------------------------|
|----------------------|--------------2-----------|-------1---1-------1---1--|
|-2--2-4--4-2--2-4---4-|---2---2-4--4-2---2-4---2-|-----2---2-------2---2----|
|-0--0-0--0-0--0-0---0-|---0---0-0--0-0---0-0---0-|---2-----------2----------|
|----------------------|--------------------------|-0-----------0------------|
|
| q  E q  E q  E E E E   a H.         Q.    Q.      q   E q   E q   E q   E
|----------------5s3s5-|--------------------5-----|--------------------------|
|----------------5s3s5-|-3s5----------5-----------|--------------------------|
|----------------5s3s5-|-3s5----------5-----------|--------------------------|
|----------------------|--------------------------|-7---7-7---9-7---9-7---9--|
|-5--5-7--7-7--7-------|--------------------------|-5---5-5---5-5---5-5---5--|
|-5--5-5--5-5--5-------|--------------------------|--------------------------|


                            Bridge
                          $
  A                          D                       A
            <
  E E E E E E E E E E E E    E E E Q  E E E E Q  E   E E E Q  E E E E Q   E
|-------------------------||-2-2-2-2--2-2-2-2-2--2-|------------------------|
|-------------2-2-2-2-2-2-||-3-3-3-3--3-3-3-3-3--3-|-2-2-2-2--2-2-2-2-2---2-|
|-----2---2-2-2-2-2-2-2-2-||-2-2-2-2--2-2-2-2-2--2-|-2-2-2-2--2-2-2-2-2---2-|
|---2---2-2-2-2-2-2-2-2-2-||-0-0-0-0--0-0-0-0-0--0-|-2-2-2-4--4-2-2-2-4---2-|
|-0-----0-0-0-0-0-0-0-0-0-||-----------------------|-0-0-0-0--0-0-0-0-0---0-|
|-------------------------||-----------------------|------------------------|
|
| q   E q   E q   E E E E    q   E q  E q   E q  E   q   E q  E q   E E E E
|-------------------------||-----------------------|------------------------|
|-------------------------||-----------------------|------------------------|
|-------------------------||-----------------------|------------------------|
|-------------------------||-5---5-7--7-5---5-7--7-|------------------------|
|-5---5-7---7-8---8-7-7-7-||-3---3-3--3-3---3-3--3-|-5---5-7--7-8---8-7-7-7-|
|-5---5-5---5-5---5-5-5-5-||-----------------------|-5---5-5--5-5---5-5-5-5-|


  D                       A                        D
  E E E Q  E E E E Q  E   E E E Q  E E E E Q   E   E E E Q  E E E E Q  E
|-2-2-2-2--2-2-2-2-2--2-|------------------------|-2-2-2-2--2-2-2-2-2--2-|
|-3-3-3-3--3-3-3-3-3--3-|-2-2-2-2--2-2-2-2-2---2-|-3-3-3-3--3-3-3-3-3--3-|
|-2-2-2-2--2-2-2-2-2--2-|-2-2-2-2--2-2-2-2-2---2-|-2-2-2-2--2-2-2-2-2--2-|
|-0-0-0-0--0-0-0-0-0--0-|-2-2-2-4--4-2-2-2-4---2-|-0-0-0-0--0-0-0-0-0--0-|
|-----------------------|-0-0-0-0--0-0-0-0-0---0-|-----------------------|
|-----------------------|------------------------|-----------------------|
|
| q   E q  E q   E q  E   q   E q  E q   E E E E   q   E q  E q   E q  E
|-----------------------|------------------------|-----------------------|
|-----------------------|------------------------|-----------------------|
|-----------------------|------------------------|-----------------------|
|-5---5-7--7-5---5-7--7-|------------------------|-5---5-7--7-5---5-7--7-|
|-3---3-3--3-3---3-3--3-|-5---5-7--7-8---8-7-7-7-|-3---3-3--3-3---3-3--3-|
|-----------------------|-5---5-5--5-5---5-5-5-5-|-----------------------|


  A                        B                       E         Cmaj7+5/B
  E E E Q  E E E E Q   E   E E E Q  E E E E Q  E   e Q  Q.     H.
|------------------------|-----------------------|-0-----------------||
|-2-2-2-2--2-2-2-2-2---2-|-4-4-4-4--4-4-4-4-4--4-|-0---------^-1-----||
|-2-2-2-2--2-2-2-2-2---2-|-4-4-4-4--4-4-4-4-4--4-|-1---------^-1-----||
|-2-2-2-4--4-2-2-2-4---2-|-4-4-4-4--4-4-4-4-4--4-|-2---------^-2-----||
|-0-0-0-0--0-0-0-0-0---0-|-2-2-2-2--2-2-2-2-2--2-|-2---------^-2-----||
|------------------------|-----------------------|-0-----------------||
|
|                                                              ~~~~
| q   E q  E q   E E E E   Q   E Q  E Q   E Q  E   e Q  Q.     H.
|------------------------|-----------------------|-----------^13-----||
|------------------------|-----------------------|-----------^13-----||
|------------------------|-----------------------|-----------^-0-----||
|------------------------|-----------------------|-----------^12-----||
|-5---5-7--7-8---8-7-7-7-|-7---7-9--9-7---9-9--9-|-5-----------------||
|-5---5-5--5-5---5-5-5-5-|-7---7-7--7-7---7-7--7-|-0-----------------||


 3rd & 4th Verses
  A
  E E E E E E E E E E E E   E E E E E E E E E  E  E E
|-------------------2-----|---------------------------|
|-------2---------3---3---|-------2------------2------|
|-----2---2-----2-------2-|-----2---2-------2-----2---|
|---2-------2-0-----------|---2-------2---2---------2-|
|-0-----------------------|-0-----------0-------------|
|-------------------------|---------------------------|
|
| q   E q   E q   E q   E   q   E q   E q   E +E  E E
|-------------------------|---------------------------|
|-------------------------|---------------------------|
|-------------------------|---------------------------|
|-------------------------|---------------------------|
|-5---5-7---7-8---8-7---7-|-5---5-7---7-8---7-(7)-5-5-|
|-5---5-5---5-5---5-5---5-|-5---5-5---5-5---5-(5)-5-5-|


  D
   E E  E  E E  E  E E  E +E  E  E
|----------2------------2-(2)------|
|-------3----3-------3-----------3-|
|----2----------2-------------2----|
|--0---------------0---------------|
|----------------------------------|
|----------------------------------|
|
|  q    E  q    E  q    E  q     E
|----------------------------------|
|----------------------------------|
|----------------------------------|
|-10---10--------------------------|
|-10---10-12---12-13---13-12----12-|
|-10---10-10---10-10---10-10----10-|


   E E  E  E E  E  E E  E  E E  E
|----------2---------------2------|
|-------3----3----------3----3----|
|----2----------2----2----------2-|
|--0---------------0--------------|
|---------------------------------|
|---------------------------------|
|
|  q    E  Q    E  q    E  Q    E
|---------------------------------|
|---------------------------------|
|---------------------------------|
|---------------------------------|
|-10---10-10---12-10---12-10---10-|
|-10---10-10---10-10---10-10---10-|


  A5
  q  E Q  E q  E Q   E     q   E q  E q   E q   E
|----------------------|---------------------------|
|----------------------|---------------------------|
|----------------------|--------------2------------|
|-2--2-4--4-2--2-4---4-|---2---2-4--4-2---2-4---2--|
|-0--0-0--0-0--0-0---0-|---0---0-0--0-0---0-0---0--|
|----------------------|---------------------------|
|
| q  E q  E q  E E E E   a H.         Q.    Q.
|----------------5s3s5-|--------------------5------|
|----------------5s3s5-|-3s5----------5------------|
|----------------5s3s5-|-3s5----------5------------|
|----------------------|---------------------------|
|-5--5-7--7-7--7-------|---------------------------|
|-5--5-5--5-5--5-------|---------------------------|


                   To Coda
  E                          A
  E E E E E E E E E E E E    E  E E E E E E  E E E E  E
|--------------------------|----------------------------||
|--------------------------|--------2-------------------||
|-------1---1-------1---1--|------2---2------2----------||
|-----2---2-------2---2----|----2-------2-2----2--------||
|---2-----------2----------|-0-------------------0-2--4-||
|-0-----------0------------|----------------------------||
|
| q   E q   E q   E q   E    H.           Q.     E E  E
|--------------------------|-----------------------5s17-||
|--------------------------|----------------------------||
|--------------------------|----------------------------||
|-7---7-7---9-7---9-7---9--|----------------------------||
|-5---5-5---5-5---5-5---5--|----------------------------||
|--------------------------|----------------------------||


 Guitar Solo
  D
    E E   E   E   E  E   E E   E   E      E  E
|-------------2--------------------2-----------|
|---------3-------3------------3---------------|
|-----2--------------2-----2-------------------|
|---0--------------------0---------------------|
|-----------------------------------------4--2-|
|----------------------------------------------|
|
|   ~~~~~~~~~~~~~
|   Q     E  +E   E  E   Q     E  +E   a  E  E
|-/17---/17-(17)-------/17---/17-(17)----------|
|----------------16s17----------------17s16----|
|-------------------------------------------17-|
|----------------------------------------------|
|----------------------------------------------|
|----------------------------------------------|


  A
    E  E E   Q   E   Q    E  E  E     E
|---------------------------------------|
|------------2---2---2----2-------------|
|--------2---2---2---2----2-------------|
|------2-----2---2---2----2-------------|
|---0----0---0---0---0----0--0--2-----4-|
|---------------------------------------|
|
|   ~~~~~~~~~~~
|   Q.       Q   E   E  E E  E  E  a  E
|---------------------------------------|
|---------------17----------17s15-------|
|----------/17-----/17s15-x-------15s17-|
|-/17-----------------------------------|
|---------------------------------------|
|---------------------------------------|


  D
   E  E E  Q        E  E E  E  Q        E
|----------2--------2----------2------------|
|-------3--3--------3-------3--3------------|
|-----2-2--2-------------2------------------|
|--0----0--0-----------0--------------------|
|---------------------------------------3b4-|
|-------------------------------------------|
|
|  ~~~                 ~~
|  Q.      E  E  a  E  Q    E  E  E  a  E
|-------------------------------------------|
|---------17s15---------------19s17---------|
|---------------15s17---------------15s17---|
|-17------------------17---17---------------|
|-------------------------------------------|
|-------------------------------------------|


  A
   E E  E  Q     E     E E  E   E  E  E
|---------------------------------------|
|----------2-----2----------2-----------|
|-------2--2-----2-------2--------------|
|----2-----2-----2-----2----------------|
|--0-------0-----0-----0--------0--2--4-|
|---------------------------------------|
|
|  ~~~~~~~
|  Q    E  E  E  E  a  Q    E   E  E  E
|---------------17-15s17s==15-----------|
|---------15s17---------------/17s15----|
|------------------------------------17-|
|-17---17-------------------------------|
|---------------------------------------|
|---------------------------------------|


     D
      E  E E  E E  E     E E     E   E      E  E
|-------------2-----------------------------------|
|----------3----3----------------3---3------------|
|--------2---------2-------2---------2------------|
|-----0-------0----0-----0-----------0------------|
|-------------------------------------------4--2--|
|-------------------------------------------------|
|
|     ~~~~~~~~~~
|  a  Q.      Q    E  a  Q    a  E  +E   a  E  E
|-15s17------17---17-17s20---15s17-(17)-----------|
|---------------------------------------17s16-----|
|---------------------------------------------17--|
|-------------------------------------------------|
|-------------------------------------------------|
|-------------------------------------------------|


  A
   E  E  E  E     E E     E E   E   E    E E
|--------------------------------------------|
|-----------2---------------2-------2--------|
|--------2--------2---------2-------2--------|
|-----2-------------2------------------------|
|--0--------0-------0-----0-----0--------0-1-|
|--------------------------------------------|
|
|  E  E  E  E  a  Q    a  Q     E  +E    Q
|-17s15--------------------------------------|
|-------17s15-----------------/17-(17)-/18---|
|-------------15s17-----------/17-(17)-/18---|
|---------------------15s17------------------|
|--------------------------------------------|
|--------------------------------------------|


  B
    E E  E   Q.        E  E  E   Q.
|----------------------------------------|
|---4-4--4---4---------4--4--4---4-------|
|---4-4--4---4---------4--4--4---4-------|
|---4-4--4---4---------4--4--4---4-------|
|---2-2--2---2---------2--2--2---2-------|
|----------------------------------------|
|
|   Q    E  +E    E E  E  E  E  +Q     E
|-------------------------------------12-|
|-/19---19-(19)-/22---20s17--------------|
|-/19---19-(19)-/22-x-------19-(19)\-----|
|----------------------------------------|
|----------------------------------------|
|----------------------------------------|


  E5
   E  E  E     E     E E   E E     E a   E   E E
|------------------------------------------------|
|------------------------------------------------|
|------------------------------------------------|
|--2--2--2-----2-----2-2---2-----------------2---|
|--2--2--2-----2-----2-2---2-2-----2-2s==4-----4-|
|--0--0--0-----0-----0-0---0---------------------|
|
|  E  E  E  a  E  a  E E   Q    a  E    +E   Q
|-12----14-------12s16---/17---------------------|
|----12----14s12---------------17s15---(15)------|
|-------------------------------------------17---|
|------------------------------------------------|
|------------------------------------------------|
|------------------------------------------------|


  A                   D
    E E   E    E E  E   E  E  E  E  E  E
|--------------------------------2-------|
|--------------2--------------3----------|
|---------2------2---------2-------------|
|-----2-------------2---0--------0-------|
|---0---------------0---------------4--2-|
|----------------------------------------|
|
|   ~~~        ~~~
|   Q     E    Q    E   Q     E  E  E  E
|-/17----17--/17---17--17----17-17s15----|
|-------(17)-/17---17-(17)---17-------17-|
|----------------------------------------|
|----------------------------------------|
|----------------------------------------|
|----------------------------------------|


  A                                         D
    E E  E  E E  E a  E  E  E a  E  E  E     E E  E  E  E  E   E  E  E   E  E E
|-----------------------------------------|----------2-------------------2------|
|-----------2-----------------------------|-------3-----3------------3------3---|
|--------2----2---------------------------|----2-----------2------2-----------2-|
|-----2----------2-------2----------2-----|--0-----------------0----------------|
|---0----0--0----0-2s=4-----4-2s=4-----4--|-------------------------------------|
|-----------------------------------------|-------------------------------------|
|
|   ~~~~~~~~                                                             ~~~~
|   Q    E  Q    E    Q     E    E  E  E     Q    E  E  E  E   E  E  E  +Q    E
|-/20---20S21---19---17\------------------|-------------------------------------|
|-------------------------------17s15-----|---------------17--------------------|
|-------------------------------------17/-|---------15s17----/16s15-------------|
|-----------------------------------------|-17----------------------17-(17)-----|
|--------------------------17-------------|------17-----------------------------|
|-----------------------------------------|-------------------------------------|


      E  E E   E   E  E  E E  E     E  E  E
|--------------2--------------------2---------|
|----------3-------3----------3--------3------|
|--------2------------2----2--------------2---|
|-----0------------------0--------------------|
|---------------------------------------------|
|---------------------------------------------|
|
|  a  Q.      +E   E  E  Q    E  a  E  E  E
|---------------------------------------------|
|---------------------------------------------|
|-15s17------(17)-17s16---------15s17s15------|
|-----------------------17---------------17/--|
|----------------------------17---------------|
|---------------------------------------------|


  A5
   q    E     q     E     q     E  q     E
|------------------------------------------|
|------------------------------------------|
|------------------------------------------|
|--2----2-----4-----4-----2-----2--4-----4-|
|--0----0-----0-----0-----0-----0--0-----0-|
|------------------------------------------|
|
|  Q    E  a  E  E  E  a  E  E  E  E  E  E
|------------------------------------------|
|------------------------------------------|
|-17--/17-15s17s15----15s17s15-------------|
|------------------17----------17-17-17-17-|
|------------------------------------------|
|------------------------------------------|


    q     E  q     E    q   E a E E E
|-------------------------------------|
|-------------------------------------|
|-------------------------------------|
|---2-----2--4-----4----5---2-----2---|
|---0-----0--0-----0----0---0-2s4---4-|
|-------------------------------------|
|
|   E  E  E  E  E  E a  Q   E   E E E
|--------14---------------------------|
|-----17----14s12-10-8s10--10---8---8-|
|-/17-----------------------------8---|
|-------------------------------------|
|-------------------------------------|
|-------------------------------------|


                                                            D.S. al Coda
  E                                       A5
  E E E  E  E  E   E E  E   E   E     E    Q.      E  E E  E  E E E E E
|---------------------------------------|--------------------------------||
|---------------------------------------|--------------------------------||
|--------1------------------1-----------|----------2--2-2--2-------------||
|-----2-----2-----------2-------2-------|--2-------2--2-2--2-------------||
|---2----------2-----2----------------2-|--0-------0--0-0--0--0-0-0-2-4--||
|-0----------------0--------------------|--------------------------------||
|
|     ~~~~~~                                       ~~~~~~~~~~~
| E E E +E  E  E   Q    E  +E   E  a  E    Q    E  Q.      H.
|---------------------------------------|---------17------17-------------||
|-8s9-------8s10---------------17-------|--------------------------------||
|-----8-(8)------/17---17-(17)----15s17-|------17------------------------||
|---------------------------------------|-17\--17------------------------||
|---------------------------------------|-17\----------------------------||
|---------------------------------------|--------------------------------||


 Outro
  &
  A           D             A     E7   Amaj7
  E E E E E E E E E E E E   e E E   Q    E  +H.         +W.
|-------------------------|--------------4--(4)------|--(4)----*|
|-------------2---3-3-----|-2-------3----2--(2)------|--(2)----*|
|-----2-------3-2---2-----|-2-------1----2--(2)------|--(2)----*|
|---2---------0-----0-----|-2-------0----2--(2)------|--(2)----*|
|-0-----0-2-4---------4-2-|-0-------2----0--(0)------|--(0)----*|
|-------------------------|---------0----------------|---------*|
|
|                                            ~~~~~~~~~~~~~~~
| E E E e E E E E E e E E   e Q     Q    E  +H.         +W.
|-------------------------|-------/13--/17-(17)------|-(17)----*|
|-2-2-2-2-----3-3-3-3-----|-2-----/13--/17-(17)------|-(17)----*|
|-1-1-1-1-----1-1-1-1-----|-1------------------------|---------*|
|-0-0-0-0-----2-2-2-2-----|-0------------------------|---------*|
|-2-2-2-2-----3-3-3-3-----|-2------------------------|---------*|
|-------------------------|--------------------------|---------*|
            
Submit corrections


        Its Too Late lessons Hard to play? Try these video lessons and learn fast Its Too Late lessons
        
↑ Back to top | Tablatures and chords for acoustic guitar and electric guitar, ukulele, drums are parodies/interpretations of the original songs. You may use it for private study, scholarship, research or language learning purposes only