» » »

Deportivo - Personne Narrive A Lheure Tabs

Artists:  A B C D E F G H I J K L M N O P Q R S T U V W X Y Z # 

Personne Narrive A Lheure Tabs

(ver. 1) Click to play this song!
Deportivo
 Rating:
4/5 (4 votes)

 Personne Narrive A Lheure  lessons Tabs too difficult? Try these video lessons and learn fast
 
                Rythmique du morceau entier (intro, verses, refrains)
    Em    G           A                       C
E |-----0-----3----|--------------0-----------0L----0--0--0--------0----|
B |-----0-----0----|--------------2-----------1L----1--1--1--------1----|
G |--0--0-----0----|--2-----------2-----------0L----0--0--0--------0----|
D |--2--2--0--0----|--2-----------2-----------2L----2--2--2--------2----|
A |--2--2--2--2----|--0-----------0-----------3L----3-----3-------------|
E |--0--0--3--3----|----------------------------------------------------|

Fin : 
    Em     G          A           C
E |-----0-----3----|--------0-----0--0--0-------|
B |-----0-----0----|--------2-----1--1--1-------|
G |--0--0-----0----|--2-----2-----0--0--0-------|
D |--2--2--0--0----|--2-----2-----2--2--2-------|
A |--2--2--2--2----|--0-----0-----3--3--3-------|
E |--0--0--3--3----|----------------------------|




Bridge :

E |-------------|-------|-------------|-------|
B |-------------|-------|-------------|-------|
G |-------------|-------|-------------|-------|
D |--2--4--5----|--0----|-----0--2----|-------|
A |-------------|-------|--3----------|--2----|
E |-------------|-------|-------------|-------|  x4 puis x2 avec le Em

     Em
E ||-7L---|--7L---|--7L---|--7---|
B ||-8L---|--8L---|--8L---|--8---|
G ||o9L---|--9L---|--9L---|--9--o|
D ||o9L---|--9L---|--9L---|--9--o|
A ||-7L---|--7L---|--7L---|--7---|
E ||------|-------|-------|------| x2

    Am                                 B
E |--0--0--0--0----|--0--0--0--0----|--2--2--2--2----|--2--2--2--2----|
B |--1--1--1--1----|--1--1--1--1----|--4--4--4--4----|--4--4--4--4----|
G |--2--2--2--2----|--2--2--2--2----|--4--4--4--4----|--4--4--4--4----|
D |--2--2--2--2----|--2--2--2--2----|--4--4--4--4----|--4--4--4--4----|
A |--0--0--0--0----|--0--0--0--0----|--2--2--2--2----|--2--2--2--2----|
E |----------------|----------------|----------------|----------------|

  D
--2--2--2--2----|--2--2--2--2----|
--3--3--3--3----|--3--3--3--3----|
--2--2--2--2----|--2--2--2--2----|
--0--0--0--0----|--0--0--0--0----|
----------------|----------------|
----------------|----------------|


intro x6
Verse x4
Verse x4
Refrain x4
Bridge x4 puis x2 (avec le Em)
Verse x4
Verse x4
Refrain x4
            
Submit corrections


        Personne Narrive A Lheure  lessons Hard to play? Try these video lessons and learn fast Personne Narrive A Lheure  lessons
        
↑ Back to top | Tablatures and chords for acoustic guitar and electric guitar, ukulele, drums are parodies/interpretations of the original songs. You may use it for private study, scholarship, research or language learning purposes only