Home » D » Depapepe »

Depapepe - Sky Sky Sky Tabs

Artists:  A B C D E F G H I J K L M N O P Q R S T U V W X Y Z # 

Sky Sky Sky Tabs

(ver. 1) Click to play this song!
Depapepe
(Intro)
This song needs two guitars: rhythm and lead. The opening melody is played by both like this:

e|------------11-13/15--13-11-13----|
B|------11/13-----------------------|
G|----------------------------------|
D|----------------------------------|
A|----------------------------------|
E|----------------------------------|

then, rhythm and lead play this part several times:

rhythm


e|------x-x-x---x--x-x---x-x-x---x--x-x----|
B|------x-x-x---x--x-x---x-x-x---x--x-x----|
G|------1-1-1---3--3-3---4-4-4---6--6-6----|
D|------2-2-2---4--4-4---5-5-5---7--7-7----|
A|------2-2-2---4--4-4---5-5-5---7--7-7----|
E|------x-x-x---x--x-x---x-x-x---x--x-x----|

lead
e|------11/12-12--11/12-12-12----|
B|------11/12-12--11/12-12-12----|
G|------x---x-x----x-x--x---x----|
D|------x---x-x----x-x--x---x----|
A|------x---x-x----x-x--x---x----|
E|------x---x-x----x-x--x---x----| listen to the song for more accurate groove

enjoy!!
            
Submit corrections

↑ Back to top | Tablatures and chords for acoustic guitar and electric guitar, ukulele, drums are parodies/interpretations of the original songs. You may use it for private study, scholarship, research or language learning purposes only