» » »

Denver John - Rhymes And Reasons Tabs

Artists:  A B C D E F G H I J K L M N O P Q R S T U V W X Y Z # 

Rhymes And Reasons Tabs

(ver. 2) Click to play this song!
Denver John
 Rating:
4/5 (4 votes)

 Rhymes And Reasons lessons Tabs too difficult? Try these video lessons and learn fast
 
                (Intro)
John Denver

Rhymes and reasons - Intro

This is how I play it. You don't need to re-tune the guitar
except to tune the low E down to droped D. Ok so this is how i play it


Capo 3rd Fret - dropped D tuning


-----------------------------------5-----------------------------------
-------3-----------------3-------------------3-------------------3-----
---------------2---------------------------------------2---------------
---0----------------0------------------0---------------------0---------
-0--------0------------------0--------------------0--------------------


-------------3-----------------2----------------0----------------------
-----0----------------0-----------------0----------------0-------------
--------0-----------------0-----------------0----------------0---------
-0---------------0------------------0----------------0-----------------


------------2----------------2---------------2----------------2--------
-----2--------------2----------------2---------------2-----------------
---------0---------------0---------------0----------------0------------
-0--------------0----------------0---------------0---------------------


------------0---------------2--------------0--------------2------------
-----0--------------0--------------0--------------0--------------------
--------0---------------0--------------0--------------0----------------
-0--------------0--------------0---------------0-----------------------

then use the same picking pattern through the verses 

Chords - D G Bm F#m A Em 
These are the chords used, work out where they are used or e-mail me
Hope that helps

peace
            
Submit corrections


        Rhymes And Reasons lessons Hard to play? Try these video lessons and learn fast Rhymes And Reasons lessons
        
↑ Back to top | Tablatures and chords for acoustic guitar and electric guitar, ukulele, drums are parodies/interpretations of the original songs. You may use it for private study, scholarship, research or language learning purposes only